Sheryl Crow - Abilene Chords & Tabs

 

Abilene Chords & Tabs

Sheryl Crow Chords & Tabs

Version: 2 Type: Tab 0 ratings
1 star 2 stars 3 stars 4 stars 5 stars
comments

Abilene Tab

   
#-----------------------------------------------------------------------------#
#-- File created with Instab - http://www.pconline.com/~smcarey/instab.html --#
#-----------------------------------------------------------------------------#

Author/Artist: Sheryl Crow
Title: Abilene
Transcribed by: Saverain
Email: saverain@hotmail.com

This is what it sounds like to me and if you don't like it
E-mail me
you'll have to find the lyrics somewhere else sorry. I are not to good words
v strum down
^ strum up

intro verse        -         verse part       -     middle verse part
[ Tab from: http://www.guitartabs.cc/tabs/s/sheryl_crow/abilene_tab_ver_2.html ]
-|--------------------|----|-----------|--------------------------------------|
-|-2-h-3-3-3-3-5-3-2--|----|-2------2--|-3--3-3-3-3-3-3-2--2--2-2-2-3--3-3-3--|
-|-2-----2-2-2-2-2-2--|-2x-|-2-2--2-2--|-0--0-0-0-0-0-0-2--2--2-2-2-0--0-0-0--|
-|-2-h-4-4-4-4-4-4-2--|----|------2----|-0--0-0-0-0-0-0-2--2--2-2-2-0--0-0-0--|
-|-0-----0-0-0-0-0-0--|----|-----------|-2--2-2-2-2-2-2-0--0--0-0-0-2--2-2-2--|
-|-0-------------0-0--|----|-----------|--------------------------------------|
   v     v ^ v v v v         ^ v  v ^    v  v v v v ^ v v  v  v ^ v ^  v v v

-----2-----------|-------------------------|0--0--0-0--0--0-2--2--2-2--2--2-2-|
-3-3-3--3-3-2--2-|-2-2--2-2-------2-2------|0--0--0-0--0--0-3--3--3-3--3--3-3-|
-0-0-2--2-2-2--2-|-2-2--2-2--2-2--2-2--2-2-|1--1--1-1--1--1-2--2--2-2--2--2-2-|
-0-0-0--0-0-2----|-2-2-------2-2-------2-2-|2--2--2-2--2--2-4--4--4-4--4--4-4-|
-2-2-0--0-0-0----|-0-0-------0-0-------0-0-|----------------------------------|
-----------------|-------------------------|----------------------------------|
 ^ v ^  ^ v ^  ^   ^ v con  sec time end    v  v  ^ v  ^  v continue      v

-2-2-2-2--2-2---|-----------------|---------|--------------------|--------|---|
-3-3-3-3--3-3-2-|---2-------2-----|---------|---2----------------|--------|---|
-2-2-2-2--2-2-2-|-----2-------2---|---------|---2----------------|--------|---|
-0-0-0-0--0-0-2-|-2-----2-2-----2-|---------|-2-2-2-2h4r2-h4-r2--|-2h4r2--|---|
--------------0-|-----------------|---------|-0---0-0h4r0-h4-r0--|-0h4r0--|---|
----------------|-----------------|---------|--------------------|--------|---|
 v ^ v v  ^ v ^     first time  sec-intro &   ^ v ^ v     second time^
Comments