Sherwood - The Town That You Live In Chords & Tabs

 

The Town That You Live In Chords & Tabs

Sherwood Chords & Tabs

Version: 1 Type: Tab 0 ratings
1 star 2 stars 3 stars 4 stars 5 stars
comments

The Town That You Live In Tab

   
Sherwood is one of the best upcoming bands around!
I just saw them about a month ago and those guys know how to do it. This song is called 
that you live in.
(Tabbed By Chris Egan)If you havent heard them check them out!
My Band: www.myspace.com/sunnydaysandstickmen
         www.direrock.com

Rhythm 1:
   ("I must say....")
e---------|
B---------|
G-4---7---|
D-4-5-7-7-|
A-2-5-5-7-|
E---3---5-|

Easy Strumming pattern, you'll get it.

Lead 1:
   (You're my friend...")
e---------------------------------|
B--7--7--7--5---------------------|
G---77-77-77----------------------|
D---------------------------------|                    x4
A---------------------------------|
E---------------------------------|

[ Tab from: http://www.guitartabs.cc/tabs/s/sherwood/the_town_that_you_live_in_tab.html ]
1st Chorus: (This is only the LEAD part, the rhythm is hitting something, i just dont know what)
   (And tonight I walk through and empty street...")
e---------------------------------|
B-/8-8-8/7-7-7/5-5-5/7-7----------|
D---7-7---7-7---7-7---7-7---------|        x4
G---------------------------------|
A---------------------------------| (something like this)
E---------------------------------|

Lead Riff:
e--------------------------------|
B--------------------------------|
D-44-4/6/7/11-9/7/999------------|
G--------------------------------|
A-22-2/4/5/9--7/5/777------------|           x2
E--------------------------------|

Play Rhythm 1 for next verse, different strumming pattern.
Play Lead 1 over the entire verse.

Main Chorus:
e-----------------|
B-----------------|
G-1414-1212-55-77-|
D-----------------|
A-1212-1010-77-55-|
E-----------------|

Its not all perfecty, but piece it together ill tab out the rest another time because it takes time
Comments