Shepherd Kenny Wayne - Slow Ride Chords & Tabs

 

Slow Ride Chords & Tabs

Shepherd Kenny Wayne Chords & Tabs

Version: 1 Type: Tab 1 rating
1 star 2 stars 3 stars 4 stars 5 stars
comments

Slow Ride Tab

   
#----------------------------------PLEASE NOTE---------------------------------#
#This file is the author's own work and represents their interpretation of the #
#song. You may only use this file for private study, scholarship, or research. #
#------------------------------------------------------------------------------##

                                    SLOW RIDE
                       As recorded by Kenny Wayne Shepherd
                       (From the 1997 Album TROUBLE IS...)

Words and Music by Kenny Wayne Shepherd, Mark Shelby, Danny Tate
Arranged by tubescream8

Gtr I (E A D G B E) - 'Elec. Dist w/Slow Flanger'
Gtr II (E A D G B E) - 'Rhythm'
Gtr III (E A D G B E) - 'Lead w/wah-wah'

 Intro
  E
 4/4
  Gtr I
  E S S S S S S S S S S S S S S   S S S S S S S S S S S S S S S S
|-------------------------------|---------------------------------|
|-------------------------------|---------------------------------|
|-------------------------------|---------------------------------|
|-------------------------------|---------------------------------|
|-------------------------------|---------------------------------|
|-0-0-0-0-0-0-0-0-0-0-0-0-0-0-0-|-0-0-0-0-0-0-0-0-0-0-0-0-0-0-0-0-|


  E
  S S S S S S S S S S S S S S S S   S S S S S S S S   S S S S S S S S
|---------------------------------|------------------------------------|
|---------------------------------|------------------------------------|
|---------------------------------|------------------------------------|
|---------------------------------|------------------------------------|
|---------------------------------|------------------------------------|
|-0-0-0-0-0-0-0-0-0-0-0-0-0-0-0-0-|-0-0-0-0-0-0-0-0---0-0-0-0-0-0-0-0--|
|
| Gtr II
| W                                 Q       E   E   a Q       Q
|---------------------------------|------------------------------------|
|---------------------------------|------------------------------------|
|---------------------------------|------------------------------------|
|---------------------------------|------------------------------------|
|---------------------------------|------------------------------------|
|---------------------------------|-7-------5---3---3-5-------3--------|


        E7+9  E7+9                       E7+9  E7+9
  Gtr III
  Q     Q       A Q     E E      E   E   E   E   +E    E   S S S S
|-----------------------------|------------------------------------|
|-----------------------------|------------------------------------|
|-9-----7---------------------|------7---9-------------------------|
|---------------9s7-----5-----|-/9-----------7---(7)---7---7-7-7-5-|
|-------------------------7---|------------------------------------|
|-----------------------------|------------------------------------|
|
| Gtr II
| E S S S S S S   S S E E S S    S S S S S S S S  S  S S S S S S S
|-----------------------------|------------------------------------|
|-------8-----8---x-----------|----------8-----8--x----------------|
|-------7-----7---x-----------|----------7-----7--x----------------|
|-------6-----6---x-----------|--5h6-----6-----6--x----------------|
|-------7-----7---x-5-5-5-5h7-|----------7-----7--x--5-5-5-5-5-5h7-|
|-0-0-0---0-0-----------------|------0-0---0-0---------------------|





               E7+9
  E       Q          E    E   S S S S S S
|-----------------------------------------|
|-----------------------------------------|
|-----------------------------------------|
|-5b5.5-----------------------7-7-7-7-7-5-|
|---------7\------------------------------|
|------------------/15\-------------------|
|
| S     S S  S S S   S  S S S S S S S S S
|-----------------------------------------|
|--------------8--------8-x---------------|
|--------------7--------7-x---------------|
|-5h====6------6--------6-x---------------|
|--------------7--------7-x-5-5-5-5-5-5h7-|
|---------0--0---0---0--------------------|


                 E7+9
  +E        Q          E    S S S S S S S S
|-------------------------------------------|
|-----------------------------8-8-8-8-8-8-8-|
|-----------------------------7-7-7-7-7-7-7-|
|-(5)b5.5-----------------------------------|
|-----------7\------------------------------|
|--------------------/15\---0---------------|
|
|  S      S S  S S S   S  S S S S S S S S S
|-------------------------------------------|
|----------------8--------8-x---------------|
|----------------7--------7-x---------------|
|--5h=====6------6--------6-x---------------|
|----------------7--------7-x-5-5-5-5-5-5h7-|
|-----------0--0---0---0--------------------|


   Verse
    $
              E7+9
    A Q       Q       A Q       E   E
||--------------------------------------|
||o-------------------------------------|
||--7s9-------7-------------------------|
||--------------------9s7-------5-------|
||o-------------------------------------|
||----------------------------------0---|
|
|     S S S S S S S S   S S S S S S S S
||--------------------------------------|
||o-----------8-----8---x---------------|
||------------7-----7---x---------------|
||----5h6-----6-----6---x---------------|
||o-----------7-----7---x-5-5-5-5-5-5h7-|
||--------0-0---0-0---------------------|


            E7+9
  a E   S S +S  E   a S +E    S S S S S S
|------------------------------------------|
|------------------------------------------|
|-------7-7-(7)-9--------------------------|
|-7s9---------------9s7-(7)---7-7-7-7-7-5--|
|------------------------------------------|
|------------------------------------------|
|
|   S S S S  S  S S   S  S  S S S S S S S
|------------------------------------------|
|------------8--------8--x-----------------|
|------------7--------7--x-----------------|
|---5h6------6--------6--x-----------------|
|------------7--------7--x--5-5-5-5-5-5h7--|
|-------0-0-----0-0------------------------|


                E7+9
   E        E   Q       +E    S S S S S S
|-----------------------------------------|
|-----------------------------------------|
|-----------------------------------------|
|-(5)b5.5---------------------7-7-7-7-7-5-|
|-----------7-----------------------------|
|---------------0-------(0)---------------|
|
|  S      S S S S S S S  S  S S S S S S S
|-----------------------------------------|
|---------------8-----8--x----------------|
|---------------7-----7--x----------------|
|--5h=====6-----6-----6--x----------------|
|---------------7-----7--x--5-5-5-5-5-5h7-|
|-----------0-0---0-0---------------------|


                E7+9
   E        E   H               S S E
|---------------------------------------|
|---------------------------------------|
|-----------------------------------7---|
|-(5)b5.5-----------------------7h9-----|
|-----------7---------------------------|
|---------------0-----------------------|
|
|  S      S S S S S S S S S S S S S S S
|---------------------------------------|
|---------------8-----8-x---------------|
|---------------7-----7-x---------------|
|--5h=====6-----6-----6-x---------------|
|---------------7-----7-x-5-5-5-5-5-5h7-|
|-----------0-0---0-0-------------------|


          A7                                  A7
  A Q     Q       A Q       E   E     A E E   E A E   +E    E S S S S
|-----------------------------------|---------------------------------|
|-----------------------------------|---------------------------------|
|-7s9-----7-------------------------|-----7---9-----------------------|
|-----------------9s7-------5-------|-7s9-------9s7---(7)---7-7-7-7-5-|
|-------------------------------7---|---------------------------------|
|-----------------------------------|---------------------------------|
|
|   E S S S S S S   S S S S S S S S     E S S E   S S  S  S E E   S S
|-----------------------------------|---------------------------------|
|---------8-----8---x---------------|---------8-----8-----------------|
|---------6-----6---x---------------|---------6-----6-----------------|
|---------7-----7---x-5-5-5-5-5-5h7-|---------7-----7-----------------|
|---0-0-0---0-0---------------------|---0-0-0-----0-------5-5-5---5h7-|
|-----------------------------------|---------------------------------|


                E7+9
   E        E   Q       +E    S S S S S S
|-----------------------------------------|
|-----------------------------------------|
|-----------------------------------------|
|-(5)b5.5---------------------7-7-7-7-7-5-|
|-----------7-----------------------------|
|---------------0-------(0)---------------|
|
|  S      S S S S S S S  S  S S S S S S S
|-----------------------------------------|
|---------------8-----8--x----------------|
|---------------7-----7--x----------------|
|--5h=====6-----6-----6--x----------------|
|---------------7-----7--x--5-5-5-5-5-5h7-|
|-----------0-0---0-0---------------------|


                E7+9
   E        E   H             +E  S S
|-------------------------------------|
|-------------------------------------|
|---------------------------------4-4-|
|-(5)b5.5-------------------------4-4-|
|-----------7---------------------2-2-|
|---------------0-------------(0)-----|
|
|  S      S S S S S S S S S E +Q
|-------------------------------------|
|---------------8-----8-----8-(8)-----|
|---------------7-----7-----7-(7)-----|
|--5h=====6-----6-----6-----6-(6)-----|
|---------------7-----7-----7-(7)-----|
|-----------0-0---0-0---0-0-----------|


 Chorus
  B5
  H.                     +E  S S
|--------------------------------|
|--------------------------------|
|-4----------------------(4)-----|
|-4----------------------(4)-----|
|-2----------------------(2)-----|
|----------------------------0-0-|
|
| E  S S S S S S S S S S  E  S S
|--------------------------------|
|--------------------------------|
|--------------------------------|
|--------------------------------|
|-9--x-x-9-x-x-9-x-9-9-9--9------|
|-7--x-x-7-x-x-7-x-7-7-7--7--0-0-|


                                             To Coda
  A5                               B  A G   G A  A
  H.                     +E  S S   Q  E E   A Q  Q
|--------------------------------|----------------------|
|--------------------------------|----------------------|
|-2----------------------(2)-----|----------------------|
|-2----------------------(2)-----|-9--7s5---5s7--7------|
|-0----------------------(0)-----|-x--x-----x----x------|
|----------------------------0-0-|-7--5s3---3s5--5------|
|
| E  S S S S S S +S  S E  E  S S   Q  E.  S   Q  E.  S
|--------------------------------|----------------------|
|--------------------------------|----------------------|
|--------------------------------|----------------------|
|--------------------------------|----------------------|
|-7--7-7-7-7-7-7-(7)-7-7--7------|-5--5-------3--3------|
|-5--5-5-5-5-5-5-(5)-5-5--5--0-0-|-3--3---0---1--1---0--|


  1.
           E7+9                               E7+9
  W                              +H.                           E   E
|------------------------------|----------------------------------------||
|------------------------------|---------------------------------------o||
|------------------------------|-----------------------------------7----||
|------------------------------|------------------------------/9--------||
|-5tr7-------------------------|-(5tr7)--------------------------------o||
|------------------------------|----------------------------------------||
|
| E    S S S S S S S S E E S S    S     S S S S S S S S S S S  S S S S
|------------------------------|----------------------------------------||
|----------8-----8-x-----------|--------------8-----8-x----------------o||
|----------7-----7-x-----------|--------------7-----7-x-----------------||
|----------6-----6-x-----------|--5h====6-----6-----6-x-----------------||
|----------7-----7-x-5-5-5-5h7-|--------------7-----7-x-5-5-5--5-5-5h7-o||
|-0----0-0---0-0---------------|----------0-0---0-0---------------------||


  2.
                                           B  A G   A  G
  H.                       +E         E    Q  E E   Q  Q
|----------------------------------------|------------------|
|----------------------------------------|------------------|
|----------------------------------------|------------------|
|----------------------------------------|-9--7s5---7--5----|
|-5tr7---------------------(5tr7)--------|-x--x-----x--x----|
|-----------------------------------/15\-|-7--5s3---5--3----|
|
| E    S S S S S S S S S S  S     S   E    Q  E.  S Q  E. S
|----------------------------------------|------------------|
|----------8-----8-----8-8--8-----8------|------------------|
|----------7-----7-----7-7--7-----7------|------------------|
|----------6-----6-----6-6--6-----6------|------------------|
|----------7-----7-----7-7--7-----7------|-5--5-----3--3----|
|-0----0-0---0-0---0-0----------------0--|-3--3---0-1--1--0-|


           E7+9                               E7+9  E7+9
  W                              +H.                          +E       E
|------------------------------|------------------------------------------|
|------------------------------|---------------------------------------0--|
|------------------------------|---------------------------------------0--|
|------------------------------|------------------------------------------|
|-5tr7-------------------------|-(5tr7)-----------------------(5tr7)------|
|------------------------------|------------------------------------------|
|
| E    S S S S S S S S E E S S    S     S S S S S S S +S  S E  S     S E
|------------------------------|------------------------------------------|
|----------8-----8-x-----------|--------------8-----8-(8)-8-8--8-----8-8--|
|----------7-----7-x-----------|--5-----6-----7-----7-(7)-7-7--7-----7-7--|
|----------6-----6-x-----------|--------------6-----6-(6)-6-6--6-----6-6--|
|----------7-----7-x-5-5-5-5h7-|--------------7-----7-(7)-7-7--7-----7-7--|
|-0----0-0---0-0---------------|----------0-0---0-0-----------------------|


 Solo
  a S S S a S S S a S S S a S S S a S S S a S
|-------0-----0-------0-------0-------0-------|
|-3s5-5---3s5---0-3s5---0-3s5---0-3s5---0-3s5-|
|---------------------------------------------|
|---------------------------------------------|
|---------------------------------------------|
|---------------------------------------------|


  S S a S S S a S S S a S S S S   S  S  S  S
|-0-------0-------0-------0--------------------|
|---0-3s5---0-3s5---0-3s5-----------15-15-15---|
|-------------------------------/16-16-16-16---|
|----------------------------------------------|
|----------------------------------------------|
|---------------------------0-0----------------|


   S  S   S  S   S  S  S   S  S  S   S  S  S  S  S  S
|-----------------------------------------------------|
|-15-15-/15-15-/15-15-15-/15-15-15-/15-15-15-15-15-15-|
|-16-16-/16-16-/16-16-16-/16-16-16-/16-16-16-16-16-16-|
|-----------------------------------------------------|
|-----------------------------------------------------|
|-----------------------------------------------------|


   S  S  S  S  S  S  S  S  S  S  S  S  S  S  S  S
|-------------------------------------------------|
|-15-15-15-15-15-15-15-15-15-15-15-15-15-15-15-15-|
|-16-16-16-16-16-16-16-16-16-16-16-16-16-16-16-16-|
|-------------------------------------------------|
|-------------------------------------------------|
|-------------------------------------------------|

[ Tab from: http://www.guitartabs.cc/tabs/s/shepherd_kenny_wayne/slow_ride_tab.html ]
   E  S  a       +S   +E   S  S  S  a       +E.   S  S  S  a       +S
|-12----------------------12---------------------12---------------------|
|----15-15pb17==(15)r(15)----12-15-15pb17==(15)r----12-15-15pb17==(15)r-|
|-----------------------------------------------------------------------|
|-----------------------------------------------------------------------|
|-----------------------------------------------------------------------|
|-----------------------------------------------------------------------|


   +E   S  S  A      +E   +E    E        S  S  A      +Q
|------12----15b17==(15)r(15)-(15)b15.5-12------------------|
|-(15)----12-------------------------------12-15b17==(15)---|
|-----------------------------------------------------------|
|-----------------------------------------------------------|
|-----------------------------------------------------------|
|-----------------------------------------------------------|


   |------------6------------|        |--3--|
   S  S  S  a      +S   +S   S  S  S  S  S  S  S  S  E  S  S  E
|-12-------------------------------------------------------------|
|----15p12---------------------------------------------14-12-----|
|----------14b16==(14)r(14)p12-14-12----------------12-14-12-----|
|------------------------------------14p12----12h14----------14\-|
|------------------------------------------14--------------------|
|----------------------------------------------------------------|


  S E S a S S S a S S S S S Q
|--------------------------------|
|--------------------------------|
|-7-9-7--------------------------|
|-------9s7-5-7-7s8s7-5-7p5------|
|---------------------------7\---|
|--------------------------------|


    G5       F5
  A Q  E E A E E  E      S S
|----------------------------|
|----------------------------|
|----------------------------|
|-7h9--7-5-5h7-5-(5)b5.5-----|
|------------------------7p5-|
|----------------------------|
|
| Gtr II
|   H        H
|----------------------------|
|----------------------------|
|----------------------------|
|---5--------3---------------|
|---5--------3---------------|
|---3--------1---------------|


                                   D.S. al Coda
                                         \1
  Q     S S S S S S S S S S S S   S E.   H.
|-------------------------------|------------------|
|-------------------------------|------------------|
|-------------------------------|------------------|
|-------------------------------|-5h6\-------------|
|-7-----7p5---7---5-5-5-5-5-5h7-|------------------|
|-----------0---0---------------|--------0---------|
|
| E S S S S S S S S E   E   S S   E    E Q   H
|-------------------------------|------------------|
|-------8-----8-8---------------|------------------|
|-------7-----7-7---------------|------------------|
|-------6-----6-6---------------|------------------|
|-------7-----7-7-5-5---5---5h7-|------------------|
|-0-0-0---0-0-------------------|-0----------------|


  &
           E7+9
  W
|--------------------------------|
|--------------------------------|
|--------------------------------|
|--------------------------------|
|-5tr7---------------------------|
|--------------------------------|
|
| E    S S S S S S S S S S S S E
|--------------------------------|
|----------8-----8-----8-8-8-8---|
|----------7-----7-----7-7-7-7---|
|----------6-----6-----6-6-6-6---|
|----------7-----7-----7-7-7-7---|
|-0----0-0---0-0---0-0---------0-|


  B  A G   G A  G               E7+9
  Q  E E   a Q  Q      W
|--------------------|---------------------------------|
|--------------------|---------------------------------|
|--------------------|---------------------------------|
|-9--7s5---5s7--5----|---------------------------------|
|-x--x-----x----x----|-5tr7----------------------------|
|-7--5s3---3s5--3----|---------------------------------|
|
| Q  E.  S   Q  E. S   E    S S S S S S S S S S S S E
|--------------------|---------------------------------|
|--------------------|----------8-----8-----8-8-8-8----|
|--------------------|----------7-----7-----7-7-7-7----|
|--------------------|----------6-----6-----6-6-6-6----|
|-5--5-------3--3----|----------7-----7-----7-7-7-7----|
|-3--3---0---1--1--0-|-0----0-0---0-0---0-0---------0--|


  B  A G   G A  G               E7+9
  Q  E E   a Q  Q      W
|--------------------|------------------------------|
|--------------------|------------------------------|
|--------------------|------------------------------|
|-9--7s5---5s7--5----|------------------------------|
|-x--x-----x----x----|-5tr7-------------------------|
|-7--5s3---3s5--3----|------------------------------|
|
| Q  E.  S   Q  E. S   E    S S S S S S S S E E S S
|--------------------|------------------------------|
|--------------------|----------8-----8-x-----------|
|--------------------|----------7-----7-x-----------|
|--------------------|----------6-----6-x-----------|
|-5--5-------3--3----|----------7-----7-x-5-5-5-5h7-|
|-3--3---0---1--1--0-|-0----0-0---0-0---------------|


               E7+9
  +W
|------------------------------------|
|------------------------------------|
|------------------------------------|
|------------------------------------|
|-(5tr7)-----------------------------|
|------------------------------------|
|
|  S     S S S S S S S +S  S E S S E
|------------------------------------|
|--------------8-----8-(8)-8-8-8-8-8-|
|--------------7-----7-(7)-7-7-7-7-7-|
|--5h====6-----6-----6-(6)-6-6-6-6-6-|
|--------------7-----7-(7)-7-7-7-7-7-|
|----------0-0---0-0-----------------|


 Outro Solo
  ~            ~~
  Q  +E  S S S E. S S S S
|-------------------------|
|-------------------------|
|-9--(9)-7---7-9--7---7-9-|
|----------9--------9-----|
|-------------------------|
|-------------------------|


  +E  S S S S    +E  +E  S S S E.   S S S S S S S S H
|---------------------------------|-------------------------|
|---------------------------------|-------------------------|
|-(9)-7---7-9b12-(9)-(9)-7---7-9--|-7-----------------------|
|-------9------------------9------|---9s7p5-7p5-7p5---------|
|---------------------------------|-----------------5tr7----|
|---------------------------------|-------------------------|


  +H.         +E     E   a    +E. +E  +S  E. +S  S S S S S a S
|----------------------|---------------------------------------|
|----------------------|---------------------------------------|
|----------------------|---------------------------------------|
|----------------------|---------------------------------5-7s9-|
|-(5tr7)------(5tr7)-7-|-7b9==(7)r(7)-(7)-7--(7)-5---5-7-------|
|----------------------|---------------------------7-----------|


    ~~~~~~~
  S E. +E  S S a S     +S  +E  S S a S     +S
|-------------------------------------------------|
|-------------------------------------------------|
|-7-9--(9)-7---7h9b11==(9)r(9)-7---7h9b11==(9)r===|
|------------9-------------------9----------------|
|-------------------------------------------------|
|-------------------------------------------------|


  E S S a S     +S  +E  S S a S     +S  +E  S S
|-----------------------------------------------|
|-----------------------------------------------|
|-9-7---7h9b11==(9)r(9)-7---7h9b11==(9)r(9)-7---|
|-----9-------------------9-------------------9-|
|-----------------------------------------------|
|-----------------------------------------------|


  a S     +S  +E  S S a E  Q   E  S  S
|--------------------------------------|
|--------------------------------12----|
|-7h9b11==(9)r(9)-7---7s9s14--14----12-|
|-------------------9------------------|
|--------------------------------------|
|--------------------------------------|


   a      +S   S  S  a      +S   S  S  a      +S   S  S  a      +S   S  S  a      +S   S  S  a      +S
|-------------------------------------------------------------------------------------------------------|
|-------------12-15-------------12-15-------------12-15-------------12-15-------------12-15-------------|
|-14b16==(14)-------14b16==(14)-------14b16==(14)-------14b16==(14)-------14b16==(14)-------14b16==(14)-|
|-------------------------------------------------------------------------------------------------------|
|-------------------------------------------------------------------------------------------------------|
|-------------------------------------------------------------------------------------------------------|


   S  S  a      +S   S  S  a      +S   S  S  a      +S   S  S  a      +S   S  S  a      +S   S
|----------------------------------------------------------------------------------------------|
|-12-15-------------12-15-------------12-15-------------12-15-------------12-15-------------12-|
|-------14b16==(14)-------14b16==(14)-------14b16==(14)-------14b16==(14)-------14b16==(14)----|
|----------------------------------------------------------------------------------------------|
|----------------------------------------------------------------------------------------------|
|----------------------------------------------------------------------------------------------|


                  |--3--|
   S  E  S  S  S  S  S  S  S  E S  S  S  S  S
|---------------------------------------------|
|-15-15---------------------------------------|
|-------12-14-12------------------14-13-14----|
|----------------14p12----12h14-x----------12-|
|----------------------14---------------------|
|---------------------------------------------|


   S S  A      +E   +E   A  +E    A      +S   S  S  A      +S   +S   S  A      +E
|--------------------------------------------12------------------------------------|
|------15b17==(15)-(15)-15-(15)r-15b17==(15)----12-15b17==(15)-(15)-12-15b17==(15)-|
|----------------------------------------------------------------------------------|
|-14-------------------------------------------------------------------------------|
|----------------------------------------------------------------------------------|
|----------------------------------------------------------------------------------|


                         |---3----|        |--3--|
   +E.  S  S  S  a      +S    S   S  S  S  S  S  S  S  S  e
|------12---------------------------------------------------|
|-(15)----15-12---------------------------------------------|
|---------------14b16==(14)r(14)p12-14-13----------------12-|
|-----------------------------------------14p12----12h14----|
|-----------------------------------------------14----------|
|-----------------------------------------------------------|


   S  S  S  S  E  E  S  S  S  S  E  a      +E
|----------------------------------------------|
|----------------------------------------------|
|-14p13----------12-14p13----------14b16==(14)-|
|-------14-12-14----------14p12-14-------------|
|----------------------------------------------|
|----------------------------------------------|


                             |--3--|
   +E   Q   E   E   E  S  S  S  S  S
|------------------------------------|
|------15--15------------------------|
|-(14)-----14r(14)-12-14p13----------|
|---------------------------14p12----|
|---------------------------------14-|
|------------------------------------|


                                                                         |--3--|
   S  S  E  S  S  S  S  E  E      E  E         E   Q   E  E  S  S  S  S  S  S  S
|------------------------------------------|-------------------------------------|
|-----------------------------------12b14==|==12--15--15-------------------------|
|-------12-14p13----------12b12.5---14b16==|=(14)-----14r14-12----14p12----------|
|-12h14----------14p12-14------------------|----------------------------14p12----|
|------------------------------------------|-------------------14-------------14-|
|------------------------------------------|-------------------------------------|


   A     +E   Q   E  +E   E  S  S  E
|------------------------------------|
|------------15--15-(15)-------------|
|-14b16-(14)-----14-(14)-12-14p12----|
|---------------------------------14-|
|------------------------------------|
|------------------------------------|


   a     +S   S  S  T  T  T  T  S  S  S  a     +S   S  S  T  T  T  T  S  S  S
|-----------------------------------------------------------------------------|
|------------15------------------------------------15-------------------------|
|-14b16-(14)----14-12-12-14-14-12-------14b16-(14)----14-12-12-14-14-12-------|
|---------------------------------14-12---------------------------------14-12-|
|-----------------------------------------------------------------------------|
|-----------------------------------------------------------------------------|


   a     +S   S  S  T  T  S  S  S  S  S  S  S  S  S  S  E
|----------------------------------------------------------|
|------------15--------------------------------------------|
|-14b16-(14)----14-12-12-14-12-------------12----14-12-----|
|------------------------------14----12-14----14-------14\-|
|---------------------------------14-----------------------|
|----------------------------------------------------------|


  B   A G G A  G
   Q  E E a Q  Q    W
|-----------------|---------|
|-----------------|---------|
|-----------------|---------|
|-/9--7-5-5s7--5--|---------|
|--x--x---x----x--|-5tr7----|
|-/7--5-3-3s5--3--|---------|


                                                   Free Time
  B   A G G A  G                  B   A G G A  G
   Q  E E A Q  Q    W              Q  E E A Q  Q    H       H
|-----------------|-------------|-----------------|------------------|
|-----------------|-------------|-----------------|------------------|
|-----------------|-------------|-----------------|-7tr9----7tr11----|
|-/9--7-5-5s7--5--|-------------|-/9--7-5-5s7--5--|------------------|
|--x--x---x----x--|-5tr7--------|--x--x---x----x--|------------------|
|-/7--5-3-3s5--3--|-------------|-/7--5-3-3s5--3--|------------------|


  E E E A    +E  +Q   Q    E E E E +H        H.      Q
|------------------------:----------------:--------------*|
|------------------------:----------------:-(9)----------*|
|---7-9-9b12-(9)-(9)--9--:-7---7-9-(9)----:-(9)------9\--*|
|-9----------------------:---9------------:--------------*|
|------------------------:----------------:--------------*|
|------------------------:----------------:--------------*|


Duration Legend
---------------
W - whole; H - half; Q - quarter; E - 8th; S - 16th; T - 32nd; X - 64th; a - acciaccatura
+ - note tied to previous; . - note dotted; .. - note double dotted
Uncapitalized letters represent notes that are staccato (1/2 duration)
Irregular groupings are notated above the duration line
Duration letters will always appear directly above the note/fret number it represents the
duration for.  Duration letters with no fret number below them represent rests.  Multi-
bar rests are notated in the form Wxn, where n is the number of bars to rest for.  Low
melody durations appear below the staff

Tablature Legend
----------------
 h   - hammer-on
 p   - pull-off
 b   - bend
 pb  - pre-bend
 r   - bend release (if no number after the r, then release immediately)
 /\  - slide into or out of (from/to "nowhere")
 s   - legato slide
 S   - shift slide
  - natural harmonic
[n]  - artificial harmonic
n(n) - tapped harmonic
 ~   - vibrato
 tr  - trill
 T   - tap
 TP  - trem. picking
 PM  - palm muting
\n/  - tremolo bar dip; n = amount to dip
 \n  - tremolo bar down
 n/  - tremolo bar up
/n\  - tremolo bar inverted dip
 =   - hold bend; also acts as connecting device for hammers/pulls
   - volume swell (louder/softer)
 x   - on rhythm slash represents muted slash
 o   - on rhythm slash represents single note slash

Misc Legend
-----------
 |  - bar
||  - double bar
||o - repeat start
o|| - repeat end
*|  - double bar (ending)
 :  - bar (freetime)
 $  - Segno
 &  - Coda
Tempo markers -  = BPM(8/16=s8/s16), where s8 = swing 8ths, s16 = swing 16ths


***************************************************************************************
* Generated using Power Tab Editor by Brad Larsen - http://powertab.guitarnetwork.org *
***************************************************************************************
Comments