Shepard Vonda - Baby Dont You Break My Heart Slow Chords & Tabs

 

Baby Dont You Break My Heart Slow Chords & Tabs

Shepard Vonda Chords & Tabs

Version: 1 Type: Tab 0 ratings
1 star 2 stars 3 stars 4 stars 5 stars
comments

Baby Dont You Break My Heart Slow Tab

   
Song: Baby, Don't You Break My Heart Slow 
Artist: Vonda Shepard
Album: Heart & Soul: New Songs from Ally McBeal
transcribed by: Clay Duggan

*Tune down half step

E                  A
I like the way you wanted me 
      C#m               B
Every night for so long baby 
E                        A
I like the way you needed me 
      C#m             B
Every time things got rocky 


A - C#m - B

B
I was believing in you 

A-C#m-B

B                     A
Was I mistaken do you say, 
                    C#m
Do you say what you mean 
B
I want our love to last forever 


E                            C#m
But I'd rather you be mean than love and lie 
A                             B
I'd rather hear the truth and have to say goodbye 
E                         C#m
I'd rather take a blow at least then I would know 
A                  B              E
But baby don't you break my heart slow 

E                                                     A

E--0------0--2--5--4--2--4--2--4----0------0---------4--2--0-----             
B--0---0----------------------------2--------2-------------------
G--1--------------------------------2-----------2----------------
D--2--------------------------------2----------------------------
A--2--------------------------------0----------------------------
E--0-------------------------------------------------------------
[ Tab from: http://www.guitartabs.cc/tabs/s/shepard_vonda/baby_dont_you_break_my_heart_slow_tab.html ]
E                    A
I like the way you'd hold me 
C#m                     B
Every night for so long baby 
E                         A
And I like the way you'd say my name 
C#m
In the middle of the night 
               B
While you were sleeping 

A - C#m - B

B
I was believing in you 

A - C#m - B

B
Was I mistaken 
A                          C#m
Do you mean, mean what you say 
B
When you say our love could last forever 


E                           C#m
Well I'd rather you be mean than love and lie 
A                               B
I'd rather hear the truth than have to say goodbye 
E                          C#m
I'd rather take a blow at least then I would know 
A                   B              E
But baby don't you break my heart slow


(Bridge) 

G#m                       C#m
You would run around and lead me on forever 
G#m                         C#m
While I wait at home still thinking that we're together 
A                          B
I wanted our love to last forever 

Outro: 

Play Chorus x 2

E---------------------------------------|----------------------7----------------
B-------7--9--10--9--7------7--9--7-----|------7--9--10--9--------10-10--9--9--7
G----9-------------------9-----------9--|---9---------------9-------------------
D-9-------------------------------------|9--------------------------------------
A---------------------------------------|---------------------------------------
E---------------------------------------|---------------------------------------


E--------------------------------7------|---7----------------------7---
B-------7--9--10--9--7-----7------------|------10--10--9--9--7--7--9---
G----9------------------9-----9-----9--9|-9------------------------9---
D-9-------------------------------------|--------------------------9---
A---------------------------------------|--------------------------7---
E---------------------------------------|--------------------------0---
Comments