Shelter - Appreciation Chords & Tabs

 

Appreciation Chords & Tabs

Shelter Chords & Tabs

Version: 1 Type: Tab 0 ratings
1 star 2 stars 3 stars 4 stars 5 stars
comments

Appreciation Tab

------------------------------------------------------------------------------- 
                         APPRECIATION - Shelter 
------------------------------------------------------------------------------- 

BY DJOLE fatdjole@ptt.yu 

Intro 
E|------------------------------     ------------- 
B|------------------------------     ------------- 
C|------------------------------\    ------------- 
D|--9-7-9-9-9--7-7-7--9-9-9----- |x3 -9-7-9-9-9-7- 
A|--9-7-9-9-9--7-7-7--7-7-7-----/    -9-7-9-9-9-7- 
E|--7-5-7-7-7--5-5-5------------     -7-5-7-7-7-5- 

Verse 
E|------------------------------ 
B|------------------------------ 
C|------------------------------ 
D|--9-7-9-9-9--7-7-7--9-9-9----- |x8 
A|--9-7-9-9-9--7-7-7--7-7-7-----/ 
E|--7-5-7-7-7--5-5-5------------ 

Chorus 
E|----------------------------------------- 
B|----------------------------------------- 
C|----------------------------------------- 
D|--4-4-4-4-4-4--2--5---4-4-4-4-4-4--7-7--- |x2 
A|--4-4-4-4-4-4--2--5---4-4-4-4-4-4--7-7---/ 
E|--2-2-2-2-2-2--0--3---2-2-2-2-2-2--5-5--- 

Verse 
E|------------------------------ 
B|------------------------------ 
C|------------------------------ 
D|--9-7-9-9-9--7-7-7--9-9-9----- |x8 
A|--9-7-9-9-9--7-7-7--7-7-7-----/ 
E|--7-5-7-7-7--5-5-5------------ 
[ Tab from: http://www.guitartabs.cc/tabs/s/shelter/appreciation_tab.html ]
Chorus 
E|----------------------------------------- 
B|----------------------------------------- 
C|----------------------------------------- 
D|--4-4-4-4-4-4--2--5---4-4-4-4-4-4--7-7--- |x2 
A|--4-4-4-4-4-4--2--5---4-4-4-4-4-4--7-7---/ 
E|--2-2-2-2-2-2--0--3---2-2-2-2-2-2--5-5--- 


E|------------------------------------------------------------- 
B|------------------------------------------------------------- 
C|------------------------------------------------------------- 
D|--9-9-9-9-9--7-7-7--7-7-7---9-9-9-9--5-5-5--7-7-7------------ 
A|--9-9-9-9-9--5-5-5--7-7-7---9-9-9-9--5-5-5--7-7-7------------ 
E|--7-7-7-7-7---------5-5-5---7-7-7-7--3-3-3--5-5-5------------ 

Outro 
E|--7-----------------------------------------------7--------------- 
B|--7-----------------------------------------------7--------------- 
C|--8-----------------------------------------------8--------------- 
D|--9-----------------------------------------------9--------------- 
A|--9-----------------7-7-7------------------7-7-7--9--------------- 
E|--7--5-7-7-7--5-5-5--------7-5-7-7-7-5-5-5--------7-5-7-7-7-5-5-5- 

E|----------------------------------|| 
B|----------------------------------|| 
C|----------------------------------|| 
D|----------9-9-9-9-9-9-9-9-9----9--|| 
A|--7-7-7---9-9-9-9-9-9-9-9-9----9--|| 
E|----------7-7-7-7-7-7-7-7-7----7--|| 

-----------------------------------------------------------------------
Comments