Shelter - Alone On My Birthday Chords & Tabs

 

Alone On My Birthday Chords & Tabs

Shelter Chords & Tabs

Version: 1 Type: Tab 0 ratings
1 star 2 stars 3 stars 4 stars 5 stars
comments

Alone On My Birthday Tab

------------------------------------------------------------------------------- 
                      ALONE ON MY BIRTHDAY - Shelter 
------------------------------------------------------------------------------- 

BY DJOLE fatdjole@ptt.yu 

Intro 
E|--------------------------------------------------------------- 
B|--------------------------------------------------------------- 
C|--------------------------------------------------------------- 
D|--6-6--8-8--8---6-6--8-8--8---6-6--8-8--8---6-6--8-8--8-8-8-8-- 
A|--6-6--6-6--8---6-6--6-6--8---6-6--6-6--8---6-6--6-6--8-8-8-8-- 
E|--4-4-------6---4-4-------6---4-4-------6---4-4-------6-6-6-6-- 

Verse 
E|--4-4-4--3-3-3--4-4-4--6-6-6----4-4-4--3-3-3--4-4-4--6-6-6----- 
B|--4-4-4--4-4-4--5-5-5--6-6-6----4-4-4--4-4-4--5-5-5--6-6-6----- 
C|--5-5-5--5-5-5--6-6-6--7-7-7----5-5-5--5-5-5--6-6-6--7-7-7----- 
D|--6-6-6--5-5-5--6-6-6--8-8-8----6-6-6--5-5-5--6-6-6--8-8-8----- 
A|--6-6-6--3-3-3--4-4-4--8-8-8----6-6-6--3-3-3--4-4-4--8-8-8----- 
E|--4-4-4----------------6-6-6----4-4-4----------------6-6-6----- 

E|--4-4-4--3-3-3--4-4-4--6-6-6----4-4-4--3-3-3--4-4-4--6-6-6----- 
B|--4-4-4--4-4-4--5-5-5--6-6-6----4-4-4--4-4-4--5-5-5--6-6-6----- 
C|--5-5-5--5-5-5--6-6-6--7-7-7----5-5-5--5-5-5--6-6-6--7-7-7----- 
D|--6-6-6--5-5-5--6-6-6--8-8-8----6-6-6--5-5-5--6-6-6--8-8-8----- 
A|--6-6-6--3-3-3--4-4-4--8-8-8----6-6-6--3-3-3--4-4-4--8-8-8----- 
E|--4-4-4----------------6-6-6----4-4-4----------------6-6-6----- 

Chorus 
E|--------------------------------------------------------------- 
B|--------------------------------------------------------------- 
C|--------------------------------------------------------------- 
D|--3-3-3-3--6-6-6-6--8-8-8-8----3-3-3-3--6-6-6-6--8-8-8-8------- 
A|--3-3-3-3--4-4-4-4--6-6-6-6----3-3-3-3--4-4-4-4--6-6-6-6------- 
E|--1-1-1-1----------------------1-1-1-1------------------------- 

E|--------------------------------------------------------------- 
B|--------------------------------------------------------------- 
C|--------------------------------------------------------------- 
D|--3-3-3-3--6-6-6-6--8-8-8-8----3-3-3-3--6-6-6-6--8-8-8-8------- 
A|--3-3-3-3--4-4-4-4--6-6-6-6----3-3-3-3--4-4-4-4--6-6-6-6------- 
E|--1-1-1-1----------------------1-1-1-1------------------------- 

Verse 
E|--4-4-4--3-3-3--4-4-4--6-6-6----4-4-4--3-3-3--4-4-4--6-6-6----- 
B|--4-4-4--4-4-4--5-5-5--6-6-6----4-4-4--4-4-4--5-5-5--6-6-6----- 
C|--5-5-5--5-5-5--6-6-6--7-7-7----5-5-5--5-5-5--6-6-6--7-7-7----- 
D|--6-6-6--5-5-5--6-6-6--8-8-8----6-6-6--5-5-5--6-6-6--8-8-8----- 
A|--6-6-6--3-3-3--4-4-4--8-8-8----6-6-6--3-3-3--4-4-4--8-8-8----- 
E|--4-4-4----------------6-6-6----4-4-4----------------6-6-6----- 
[ Tab from: http://www.guitartabs.cc/tabs/s/shelter/alone_on_my_birthday_tab.html ]
E|--4-4-4--3-3-3--4-4-4--6-6-6----4-4-4--3-3-3--4-4-4--6-6-6----- 
B|--4-4-4--4-4-4--5-5-5--6-6-6----4-4-4--4-4-4--5-5-5--6-6-6----- 
C|--5-5-5--5-5-5--6-6-6--7-7-7----5-5-5--5-5-5--6-6-6--7-7-7----- 
D|--6-6-6--5-5-5--6-6-6--8-8-8----6-6-6--5-5-5--6-6-6--8-8-8----- 
A|--6-6-6--3-3-3--4-4-4--8-8-8----6-6-6--3-3-3--4-4-4--8-8-8----- 
E|--4-4-4----------------6-6-6----4-4-4----------------6-6-6----- 

Chorus 
E|--------------------------------------------------------------- 
B|--------------------------------------------------------------- 
C|--------------------------------------------------------------- 
D|--3-3-3-3--6-6-6-6--8-8-8-8----3-3-3-3--6-6-6-6--8-8-8-8------- 
A|--3-3-3-3--4-4-4-4--6-6-6-6----3-3-3-3--4-4-4-4--6-6-6-6------- 
E|--1-1-1-1----------------------1-1-1-1------------------------- 

E|-------------------------------------------------------------------- 
B|-------------------------------------------------------------------- 
C|-------------------------------------------------------------------- 
D|--6-6-6-6--6-6-6-6--6-6-6-6--6-6-6-6--6-6-6-6--8-8-8-8--8--8--8--8-- 
A|--4-4-4-4--6-6-6-6--4-4-4-4--6-6-6-6--4-4-4-4--6-6-6-6--6--6--6--6-- 
E|-----------4-4-4-4-----------4-4-4-4-------------------------------- 

Verse 
E|--4-4-4--3-3-3--4-4-4--6-6-6----4-4-4--3-3-3--4-4-4--6-6-6----- 
B|--4-4-4--4-4-4--5-5-5--6-6-6----4-4-4--4-4-4--5-5-5--6-6-6----- 
C|--5-5-5--5-5-5--6-6-6--7-7-7----5-5-5--5-5-5--6-6-6--7-7-7----- 
D|--6-6-6--5-5-5--6-6-6--8-8-8----6-6-6--5-5-5--6-6-6--8-8-8----- 
A|--6-6-6--3-3-3--4-4-4--8-8-8----6-6-6--3-3-3--4-4-4--8-8-8----- 
E|--4-4-4----------------6-6-6----4-4-4----------------6-6-6----- 

E|--4-4-4--3-3-3--4-4-4--6-6-6----4-4-4--3-3-3--4-4-4--6-6-6----- 
B|--4-4-4--4-4-4--5-5-5--6-6-6----4-4-4--4-4-4--5-5-5--6-6-6----- 
C|--5-5-5--5-5-5--6-6-6--7-7-7----5-5-5--5-5-5--6-6-6--7-7-7----- 
D|--6-6-6--5-5-5--6-6-6--8-8-8----6-6-6--5-5-5--6-6-6--8-8-8----- 
A|--6-6-6--3-3-3--4-4-4--8-8-8----6-6-6--3-3-3--4-4-4--8-8-8----- 
E|--4-4-4----------------6-6-6----4-4-4----------------6-6-6----- 

Chorus 
E|--------------------------------------------------------------- 
B|--------------------------------------------------------------- 
C|--------------------------------------------------------------- 
D|--3-3-3-3--6-6-6-6--8-8-8-8----3-3-3-3--6-6-6-6--8-8-8-8------- 
A|--3-3-3-3--4-4-4-4--6-6-6-6----3-3-3-3--4-4-4-4--6-6-6-6------- 
E|--1-1-1-1----------------------1-1-1-1------------------------- 

E|--------------------------------------------------------------- 
B|--------------------------------------------------------------- 
C|--------------------------------------------------------------- 
D|--3-3-3-3--6-6-6-6--8-8-8-8----3-3-3-3--6-6-6-6--8-8-8-8------- 
A|--3-3-3-3--4-4-4-4--6-6-6-6----3-3-3-3--4-4-4-4--6-6-6-6------- 
E|--1-1-1-1----------------------1-1-1-1------------------------- 

Outro 
E|--------------------------------------------------------|| 
B|--------------------------------------------------------|| 
C|--------------------------------------------------------|| 
D|--6-----------8-6---------------------------------------|| 
A|--6-----6-8-6-------------------------------------------|| 
E|--4--4--------------------------------------------------|| 

-------------------------------------------------------------------------------
Comments