Sheila On 7 - Kita Chords & Tabs

 

Kita Chords & Tabs

Sheila On 7 Chords & Tabs

Version: 1 Type: Tab 0 ratings
1 star 2 stars 3 stars 4 stars 5 stars
comments

Kita Tab

   
##################################################################################
# This file is the author's own work and represents their interpretation of the  #
# song. You may only use this file for private study, scholarship, or research.  #
##################################################################################

Judul: Kita
Artis: Sheila On 7
Album: 
Edited by : Arif (smil3_boys@plasa.com)

Intro : C  Em  f  G (2X)  C

e:|--1--1--|--0---0--|--0--0--|--0--0--|--0-0---0-0---0-0---0-0--|
B:|-----1--|--1---1--|--3--3--|--1--1--|--0-0---0-0---0-0---0-0--|
G:|-----0--|--0---0--|--0--0--|--0--0--|--0-0---0-0---0-0---0-0--|
D:|-----2--|--2---2--|--2--2--|--2--2--|--2-2---2-2---2-2---2-2--| 
A:|-----3--|--3---3--|--3--3--|--3--3--|--2-2---2-2---2-2---2-2--|
E:|--------|---------|--------|--------|--------------------------

e:|--3--3--|--1---1--|--0--0--|--0--0--|--3-3---3-3---3-3---3-3--|
B:|-----1--|--1---1--|--3--3--|--1--1--|--3-3---3-3---3-3---3-3--|
G:|-----2--|--2---2--|--2--2--|--2--2--|--0-0---0-0---0-0---0-0--|
D:|-----3--|--3---3--|--3--3--|--3--3--|--0-0---0-0---0-0---0-0--| 
A:|--------|---------|--------|--------|--2-2---2-2---2-2---2-2--|
E:|--------|---------|--------|--------|--3-3---3-3---3-3---3-3--|


 C     Em7     Dm     G     Em    Bb     f    Am      f
e:|----0------0-------1-----3------0-----1-----1------0------1-----------|
B:|----1------0-------3-----3------0-----3-----1------1------1-----------|
G:|----0------1-------2-----0------0-----3-----2------2------2-----------|
D:|----2------0-------0-----0------2-----3-----3------2------3-----------|
A:|----3------2-------------2------2-----1-----3------0------------------|
E:|-----------0-------------3------0-----------1-------------------------|

I think this tab right. Thank's for my friend "Agung".For 1-3 $ 1-4 class SAY "laugh forever"



*****************************************

[ Tab from: http://www.guitartabs.cc/tabs/s/sheila_on_7/kita_tab.html ]
Judul : Dan
Artis : Sheila On 7
Album : Sheila On 7
Tabbed by: Edy zuraidy (Bedy_22@yahoo.com)
E -------------------------------
B -------2----3-----3^2----------
G -----2----2---2-------2--------
D ---2------------2-------2------
A -0-----------------------------
E -------------------------------


Int :  A  Asus  A  Asus (2x)

Back to : Reff

Int :  A  E  F#m  D (2x)

Back to : Reff

Coda :  G  E  G  E  A

      D    C#m  Bm    A      E     F#m       G
e:|---2-----4----2----0------0-------2-------3---------------------|
B:|---3-----5----3----2------0-------2-------3---------------------|
G:|---2-----6----4----2------1-------2-------0---------------------|
D:|---0-----6----4----2------2-------4-------0---------------------|
A:|---------4----2----0------2-------4-------2---------------------|
E:|--------------------------0-------2-------3---------------------|

- end of tab


****************************************


Judul: Kita
Artis: Sheila On 7
Album:
Tabbed by: Edy Zuraidi (bedy_22@hotmail.com)

Intro : C  Em7  Dm  G (2X)  C

e:|-----------------------------------|---------------------------------------|
B:|-----------------------------------|---------------------------------------|
G:|---10--10-s-9---9-s-7---7-s-5-s--9-|--12--12-s-10--10-s-9--9-s-7--7-s-12---|
D:|---10--10-s-9---9-s-7---7-s-5-s--9-|--12--12-s-10--10-s-9--9-s-7--7-s-12---| (2x)
A:|---8----8-s-7---7-s-5---5-s-3-s--7-|--10--10-s--8---8-s-7--7-s-5--5-s-10---|
E:|-----------------------------------|---------------------------------------|



C     Em7     Dm     G     Em    Bb     f    Am
e:|----0------0-------1-----3------0-----1-----1------0-----------------|
B:|----1------0-------3-----3------0-----3-----1------1-----------------|
G:|----0------1-------2-----0------0-----3-----2------2-----------------|
D:|----2------0-------0-----0------2-----3-----3------2-----------------|
A:|----3------2-------------2------2-----1-----3------0-----------------|
E:|-----------0-------------3------0-----------1------------------------|


- This is not mine, I found it a long time ago
but I think it is right...



- end of tab
Comments