Sheep - Everything Chords & Tabs

 

Everything Chords & Tabs

Sheep Chords & Tabs

Version: 1 Type: Tab 0 ratings
1 star 2 stars 3 stars 4 stars 5 stars
comments

Everything Tab

this is actually a great song and it is by my own band sheep so i hope you like the tabs

drop D tuning
intro/verse
e-------------------------------------------------------
b--1--1-1-1---------------------------------------------
g--2--2-2-2---------------------------------------------
d--2--2-2-2--3-3--3-3-3-3--5--5-5-5---3-3--3-3-3-3------
a------------3-3--3-3-3-3--5--5-5-5---3-3--3-3-3-3------
D------------3-3--3-3-3-3--5--5-5-5---3-3--3-3-3-3------

chorus
e------------------------------------------------------
b------------------------------------------------------
g--5--5-5-5--------------------------------------------
d--5--5-5-5--5--5-5-5-0--3--3-3-3--5--5-5-5-0----------
a--3--3-3-3--5--5-5-5-0--3--3-3-3--5--5-5-5-0----------
D------------5--5-5-5-0--3--3-3-3--5--5-5-5-0----------

solo
e-------------------------------------------------
b-------------------------------------------------
g--12-11-9--12-11-9--12-11-9--7b------------------ 4x
d-------------------------------------------------
a-------------------------------------------------
D-------------------------------------------------
[ Tab from: http://www.guitartabs.cc/tabs/s/sheep/everything_tab.html ]
then this just only two times
e-------------------------------------------------
b-------------------------------------------------
g--5s-7s-9s-11s-12---12-11-9----------------------
d-------------------------------------------------
a-------------------------------------------------
D-------------------------------------------------

hear are the lyrics

verse1
follow me as i follow you
come to me with what we do
surrender me as i walk upon high
follow me and i will not lie

chorus
and everything is back again
and everything cannot win
everything is trust or lose
and everthing is something to do

verse2
follow me as i stand by you
trust me for all we knew
survive with me as i do what you need
survive with me and i'll be what you be

           (reapeat chorus)

verse3
follow mw without your sins
follow me and we will do it again
run to me when you feel all free
follow me with what i need
           
           (repeat chorus)


if you have read this and tried to play it then thank you alot and if you thought it sucked then i still thank you for your opinions 

tabbed and wrote by Martin Shrewsbury and Brian Tooley
Comments