Shed Seven - Speakeasy Chords & Tabs

 

Speakeasy Chords & Tabs

Shed Seven Chords & Tabs

Version: 1 Type: Tab 0 ratings
1 star 2 stars 3 stars 4 stars 5 stars
comments

Speakeasy Tab

   
#----------------------------------PLEASE NOTE---------------------------------#
#This file is the author's own work and represents their interpretation of the #
#song. You may only use this file for private study, scholarship, or research. #
#------------------------------------------------------------------------------#
#
Date: 26 Jan 96 12:06:29 EST
From: Mark Sullivan <100746.3536@compuserve.com>
Subject: TAB BY "SHED 7"

SPEAKEASY		BY SHED 7
=========


INTRO:


  E             Am    G     Am    G     Frun            C   G
e|-----7-7--|-0-0-0-0-3-3-0-0-0-0-3-3-0-1-1-1-1-1-1-1-1-0-0-3-3-|
B|-----9-9--|-0-1-1-0-0-0-0-1-1-0-0-0-0-1-1-1-1-1-1-1-1-1-1-0-0-|
G|-----9-9--|-0-2-2-0-0-0-0-2-2-0-0-0-0-2-0-2-0-2-0-2-0-0-0-0-0-|
D|-----9-9--|-0-2-2-0-0-0-0-2-2-0-0-0-0-3-3-3-3-3-3-3-3-2-2-0-0-|
A|-----7-7--|-0-0-0-0-2-2-0-0-0-0-2-2-0-3-3-3-3-3-3-3-3-3-3-2-2-|
E|-0-0------|-0-----0-3-3-0-----0-3-3-0---------------------3-3-|
  ^^^^^^^^^^
  THIS BIT IS
  PLAYED x8


VERSE: SAME RHYTHM AS INTRO
[ Tab from: http://www.guitartabs.cc/tabs/s/shed_seven/speakeasy_tab.html ]
Am		G		Am		G
WILL THERE BE ANOTHER BREAKDOWN, LOST IN YOUR WORDS
Am		G		Am		G	Frun
COMMUNICATION IS A LET DOWN, IN YOUR OWN WORDS
C	G
SPEAKEASY
Am		G		Am		G
WHEN YOU SPEAK IS IT EASY, LOST IN YOUR WORDS
Am		G		Am		G	Frun
YOUR TRYING TOO HARD TO PLEASE ME, IN YOUR OWN WORDS


Crun:
   C Bm Am
e|-0-0-0---|
B|-1-1-1---|
G|-0-0-2---|
D|-2-0-2---|
A|-3-2-0---|
E|---------|


Am - G - Am - F F#m

C - Bm - Am - E

C - Bm - Am - Frun - Crun - Am  STOP.

SOLO:

e|----------------------|---------------------------------|----------|
B|----8--7--5-7-5-------|----88-77-5--88-77-55------------|----------|
G|-/9---7--5-------TIMES|----99-77-5--99-77-55-7-5--TIMES-|----------|
D|-------------------4--|--7--------------------------4---|----------|
A|----------------------|-0-------------------------------|-3-2-0----|
E|----------------------|---------------------------------|----------|



		**************************
		*MORE SHED 7 SONGS PLEASE*
		**************************


CORRECTIONS/ADDITIONS/OTHER SONGS WANTED

MARK SULLIVAN<100746.3536@COMPUSERVE.COM>

Comments