Shed Seven - Getting Better Chords & Tabs

 

Getting Better Chords & Tabs

Shed Seven Chords & Tabs

Version: 1 Type: Tab 0 ratings
1 star 2 stars 3 stars 4 stars 5 stars
comments

Getting Better Tab

Shed Seven-Getting Better
Tabbed by david mcmath 



Intro and Verse

    
||----------------------2--2--2-----0--0---------------
||----------------------3--3--3-----2--3---------------
||----------------------2--2--2-----2--2---------------
||--2-----2--2-----2----------------2--2--------x3-----
||--2-----2--2-----2----------------0--0---------------
||--0--3--0--0--3--0----------------------------------

  
                   
|--0---0---------------------------------
|--1-----3--------------------------------
|--0-0-----0--------------------------------
|--2------------------------------------------
|--3--------------------2-2-0-0-------------
|-------------------------------3-3-2-2------
  
   Bridge

------------0--------------------------------
------------0-------------------------------
--4---------4--------------------------------
--x--1bar---x-----1bar------------------------------
--2---------2---------------------------------
--0---------0------------------------------------



listen to rhythm for the chord parts                  
       

||--0---------------3---------3------------
||--0---------------3---------3------------
||--1---------------0---------0-----------
||--2---------------0---------0------------
||--2---------------2---------2------------
||--0--0--1--2------3-0-2-0-3-3--

-------------------------------------------
--------------------------------------------
---------------------2nd-time---------------
1st-time----------------------0--5-5-4-0-----
----------------------------------------------
----------0-3-3-2-0--------------------------


-2--2--0--2--3--2--0--2------------------
-3--3--3--3--3--3--3--3-----------------
-2--2--2--2--2--2--2--2----------------
-0--0--0--0--0--0--0--0---------------
-------------------------------------
--------------------------------------




-----------------------------------
----------------------------2-2--3---
------2--2----------2-------3-3--4-----
------2--2----------2-------0-0-------
------0--0----------0--3--4-----------
-3b---------0-3--4------------------

|--0---0---------------------------------
|--1-----3--------------------------------
|--0-0-----0--------------------------------
|--2------------------------------------------
|--3--------------------2-2-0-0-------------
|------------------------------3-3-2-2------

Repeat verse, bridge and chorus.

SOLO (VERY hard!)
This is how Joe plays it live:
[ Tab from: http://www.guitartabs.cc/tabs/s/shed_seven/getting_better_tab.html ]
---------------------------------
-----0---------------------------
-------------------------------
-7b------5-------------------------
-------------7--------5-------------
-----------------5h7-----7-----------

---------------------------------
-----0---------------------------
-------------------------------
-7b------5-------------------------
-------------7--------5-------------
-----------------5h7-----7-----------

-----0----------------------------
--------------------------------
-------------------------------
-7b------5-------------------------
-------------7--------5-------------
-----------------5h7-----7-----------

---------------------------------
-----0---------------------------
-------------------------------
-7b------5-------------------------
-------------7--------5-------------
-----------------5h7-----7-----------

------------------------------------------------
------------------------------------------------
-----------------------------------------------
------------4--4--4-5--5--5--7--7--7--7--7--7--
---7--7--7------------------------------------
------------------------------------------------

------------------------------------
------------------------------------
-------------------------------------
--9--9--9--10--10--10-12-12-12-------
-------------------------------------
--------------------------------------


--------------------------------------
---------------------------------------
-----6--6--6---------8--8--8---------------
-----7--7--7---------9--9--9------------------
-----7--7--7---------9--9--9-------------------
-----5--5--5---------7--7--7------------------

-----------------0---------------0------------0-----
-----------------0---------------0------------0-----
-----------------0---------------0------------0-----
----5-5-5-4---------5-5-5-4--------5-5-5-4---------
------------5---------------5-0------------5-------
---------------0-----------------------------0--------

---------------------0--------------
---------------------0-------------
---------------------0-------------
--5--5--5--4-----------------------
--------------5--5-----------------
---------------------------------

repeat verse bridge and chorus.

ending

------------0--------------------------------
------------0-------------------------------
--4---------4--------------------------------
--x--1bar---x-----3bars------------------------------
--2---------2---------------------------------
--0---------0------------------------------------


-----0--------------------------
-----3--------------------------
-----1--------9->>----------------
-----2--------9->>--------end---
-----2--------7->>---------------
-----0--------------------------
Comments