Shed Seven - Disco Down Chords & Tabs

 

Disco Down Chords & Tabs

Shed Seven Chords & Tabs

Version: 1 Type: Bass Tab 0 ratings
1 star 2 stars 3 stars 4 stars 5 stars
comments

Disco Down Bass Tab

   
-------------------------------------------------------------------------------
                             DISCO DOWN - Shed Seven
-------------------------------------------------------------------------------
Tabbed by: SmokingTabs
E-mail: goudiedudi@hotmail.com

Tuning:
        INTRO
G|---------------------------------------------------------------------------|
D|---------------------------------------------------------------------------|
A|---------------------------------------------------------------------------|
E|--0----0----0----0---------------------------------------------------------|
        MAIN RIFF
G|-----------------------------------------------------------------------------|
D|----0-2---0-2---0h2---3-5-0-3-5-0-3h5----------------------        ----------|
A|--------2-----2-----------------------3-1---3-1-----------             ------|
E|--0---------------------------------------3-----1-1h3--3-5-0-3-5 0 3h5-------|
        PRE CHORUS
G|---------------0-0-------------------------------3------3--------------------|
D|----0- 1-1-3-3-----3-3-1-1-0------0--1-1-3--5p3 5-5-3h5--5-3-----------------|
A-1-1---------------------------1-1--------------------------------------------|
E|-----------------------------------------------------------------------------|
[ Tab from: http://www.guitartabs.cc/tabs/s/shed_seven/disco_down_btab.html ]
G|---------------0-0---------------------------------------------------------|
D|----0--1-1-3-3-----3-3-1-1-0------0--1-1-3--0-0-0-0-0----------------------|
A|1-1---------------------------1-1------------------------------------------|
E|---------------------------------------------------------------------------|
        CHORUS
END OF CHORUS
G|---------------------------------------------------------------------------|
D|-----------------4-5-7-7---------------2-3-5-5-------0--0--0--0--0--0--0--0|
A|------2-3-5-5--5---------0-3-2-0-3---3-------------------------------------|
E|-3--3----------------------------------------------------------------------|
        BRIDGE (same as first bit of main riff)
G|---------------------------------------------------------------------------|
D|---0-2---0-2---0h2---------------------------------------------------------|
A|-------2-----2-------------------------------------------------------------|
E|-0-------------------------------------------------------------------------|
        OUTRO
G|---------------------------------------------------------------------------|
D|---0-2---0-2---0h2---2-0-2-------------------------------------------------|
A|-------2-----2-------------------------------------------------------------|
E|-0-------------------------------------------------------------------------|
 

STRUCTURE
INTRO
MAIN RIFF X4
PRE CHORUS
CHORUS X4
MAIN RIFF X4
PRE CHORUS
CHROUS X2
BRIDGE X8
CHORUS X4
OUTRO


| /  slide up
| \  slide down
| h  hammer-on
| p  pull-off
| ~  vibrato
| +  harmonic
| x  Mute note
===============================================================================
Comments