Shed Seven - Chasing Rainbows Chords & Tabs

 

Chasing Rainbows Chords & Tabs

Shed Seven Chords & Tabs

Version: 2 Type: Tab 0 ratings
1 star 2 stars 3 stars 4 stars 5 stars
comments

Chasing Rainbows Tab

   
-------------------------------------------------------------------------------
			     CHASING RAINBOWS - Shed Seven
-------------------------------------------------------------------------------

By: Terence Hall - tezhall - tez@affordablesupplements.co.uk

Listen to the CD for the strumming, I'm at work *ahem* so I can't do it all
right now - I play it capo'd on the 2nd but only cos I can't sing well ;) to
play with the recording just leave it open (I think).  Feel free to correct the
lyrics, this is how I worked 'em out off the cd, but I'm an old man of 24 and you
know what they say, the hearings the first thing to go!  Theres no real intro, it
kicks straight into the verse after a couple of strums of the Am chord.


VERSE

e|-0---3---3---3---0---0---3---3---3--||
B|-1---3---3---3---1---1---3---3---3--||
G|-2---0---0---0---2---0---0---0---0--||
D|-2---0---0---0---2---2---0---0---0--||
A|-0---2---0---2---0---3---2---0---2--||
E|-0---3---3---3---0---0---3---3---3--||
   Am  G   G5  G   Am  C   G   G5  G

Theres things that I regret
Like being called a nervous wreck
And working up another sweat for you

There's nothing I can do
With counterparts and bleeding hearts
And all the things that fall apart for you

BRIDGE

e|-0---0---3---3---0---0---2---3----2--|
B|-0---1---3---3---0---1---3---3----3--|
G|-0---0---0---0---0---0---2---2----2--|
D|-2---2---0---0---2---2---0---0----0--|
A|-2---3---2---0---2---3---0---0----0--|
E|-0---0---3---2---0---0---x---x----x--|
   Em  C   G  G/F  Em  C   D Dsus2  D

I don't keep my secrets there
I hide them everywhere

CHORUS 1

e|-3---2---0---0---3---2---0--|
B|-3---3---0---1---3---3---1--|
G|-0---2---0---0---0---2---0--|
D|-0---0---2---2---0---0---2--|
A|-2---0---2---3---2---0---3--|
E|-3---x---0---0---3---x---0--|
   G   D  Em   C   G   D   C

I could deny but I'll never realise
I'm just chasing rainbows all the time

e|-0---3---3---3---0---0---3---3---3--||
B|-1---3---3---3---1---1---3---3---3--||
G|-2---0---0---0---2---0---0---0---0--||
D|-2---0---0---0---2---2---0---0---0--||
A|-0---2---0---2---0---3---2---0---2--||
E|-0---3---3---3---0---0---3---3---3--||
   Am  G   G5  G   Am  C   G   G5  G
[ Tab from: http://www.guitartabs.cc/tabs/s/shed_seven/chasing_rainbows_tab_ver_2.html ]
And then I miss my cue
Everybody had a laugh
And then went for an early bath
Did you?

e|-0---0---3---3---0---0---2---3----2--|
B|-0---1---3---3---0---1---3---3----3--|
G|-0---0---0---0---0---0---2---2----2--|
D|-2---2---0---0---2---2---0---0----0--|
A|-2---3---2---0---2---3---0---0----0--|
E|-0---0---3---2---0---0---x---x----x--|
   Em  C   G  G/F  Em  C   D Dsus2  D

I don't keep my secrets there
I hide them everywhere

e|-3---2---0---0---3---2---0--||
B|-3---3---0---1---3---3---1--||
G|-0---2---0---0---0---2---0--||
D|-0---0---2---2---0---0---2--||
A|-2---0---2---3---2---0---3--||
E|-3---x---0---0---3---x---0--||
   G   D  Em   C   G   D   C

I could deny but I'll never realise
I'm just chasing rainbows all the time
I could deny but I never realised
I've been chasing rainbows all my life

SOLO (can't do this one so I'll stick the chords for it and leave it
to people who can!)

e|-0---0---3---3---0---0---0---2--|
B|-1---1---3---3---0---1---1---3--|
G|-2---0---0---0---0---2---0---2--|
D|-2---2---0---0---2---2---2---0--|
A|-0---3---2---0---2---0---3---0--|
E|-0---0---3---2---0---0---0---x--|
   Am  C   G  G/F  Em  Am  C   D

e|-3---2---0---0---3---2---0--||
B|-3---3---0---1---3---3---1--||
G|-0---2---0---0---0---2---0--||
D|-0---0---2---2---0---0---2--||
A|-2---0---2---3---2---0---3--||
E|-3---x---0---0---3---x---0--||
   G   D  Em   C   G   D   C

I could deny but I'll never realise
I'm just chasing rainbows all the time
I could deny but I never realised
I've been chasing rainbows all my life

OUTRO

e|-3---2---0---0---3---2---0--||
B|-3---3---0---1---3---3---1--||
G|-0---2---0---0---0---2---0--||
D|-0---0---2---2---0---0---2--||
A|-2---0---2---3---2---0---3--||
E|-3---x---0---0---3---x---0--||
   G   D  Em   C   G   D   C

OUTRO SOLO (on the recording this is a violin but it sounds OK as a solo)
(had to put em real close together cos it wouldn't fit in notepad otherwise :-)

e|-3--------------------------------------------00002222233--|
B|-3-310--310--3101-0310pause--310--310-11113333-------------|
G|-0----2----0---------------0----2--------------------------|
D|-0---------------------------------------------------------|
A|-2---------------------------------------------------------|
E|-3---------------------------------------------------------|
   G
Comments