Shawn Mullins - Lullaby Chords & Tabs

 

Lullaby Chords & Tabs

Shawn Mullins Chords & Tabs

Version: 1 Type: Bass Tab 0 ratings
1 star 2 stars 3 stars 4 stars 5 stars
comments

Lullaby Bass Tab

  BTAB: Lullaby
Artist: Sean Mullen
 Album: Unknown
Author: Rattman (jratt0@hotmail.com)

**Padrino's Bass Tab Exclusive!**

First Verse:
G-0-0----------------------
D--------------------------
A-----2-2---3-3--3-3-3-3-3-
E--------------------------
[ Tab from: http://www.guitartabs.cc/tabs/s/shawn_mullins/lullaby_btab.html ]
Chorus:
    repeat several times       end of chorus (also guitar solo part) 
G----------------------------|---------------------
D----------0~-0~-0~----------|---------------------
A-------------------3~-3~-3~-|-0--0-0-0-0-2/3~-3-3-
E-3~-3~-3~-------------------|---------------------

Taken from Padrino's Bass Tab Archive: http://members.xoom.com/jszalma/
Comments