Shattered Symmetry - Willows Chords & Tabs

 

Willows Chords & Tabs

Shattered Symmetry Chords & Tabs

Version: 1 Type: Tab 0 ratings
1 star 2 stars 3 stars 4 stars 5 stars
comments

Willows Tab

   
hey this is Willows by shattered symmetry, a local orlando band. enjoy.

Intro- Distorted
e|-------------------------------------------------|
b|-------------------------------------------------|
g|--12-12-12-12-12-11-14-11-11-12-12-9--9--9--9--9-|
d|--12-12-12-12-12-12-12-12-12-12-12-10-10-10-10-10|
a|--10-10-10-10-10-10-10-10-10-10-10-10-10-10-10-10|
E|-----------------------------------8--8--8--8--8-|

e|-------------------------------------------------|
b|-------------------------------------------------|
g|--8--8--8--8--8--8-------------------------------|
d|--10-10-10-10-10-10------------------------------|
a|--10-10-10-10-10-10------------------------------|
E|-------------------------------------------------|

e|----------------------------------------------------|
b|----------------------------------------------------|
g|--12-12-12-12-12-11-14-11-11-12-12-9--9--9--9--9----|
d|--12-12-12-12-12-12-12-12-12-12-12-10-10-10-10-10--8|
a|--10-10-10-10-10-10-10-10-10-10-10-10-10-10-10-10-10|
E|-----------------------------------8--8--8--8--8--10|

e|----------------------------------------------|
b|----------------------------------------------|
g|-----9-12-8b-s--------------------------------|
d|-s10------------------------------------------|
a|----------------------------------------------|
E|----------------------------------------------|

Verse- Clean
G                C      
Pain, why do you feel this way?
G                        
With all these years, and all this time
(and so on)
[ Tab from: http://www.guitartabs.cc/tabs/s/shattered_symmetry/willows_tab.html ]
Prechorus- Distorted (strumming not shown)
e|-----------------------------------------|
b|------------4----------------------------|
g|--5-7-5-7-5-5----------------------------|
d|--5-7-5-7-5-5----------------------------|
a|--3-5-3-5-3-3----------------------------|
E|-----------------------------------------|
Chorus- Distorted (strumming not shown)
e|----------3-5-3-3--------------------|
b|--------4-3-7-5-4--------------------|
g|----7-5-5-4-7-5-5--------------------|
d|--5-7-5-5-5-7-5-5--------------------|
a|--5-5-3-3-5-5-3-3--------------------|
E|--3-------3--------------------------|

Verse 2- Starts like the first, then halfway through switches to this distorted part.

e|---------------------------------------------|
b|---------------------------------------------|
g|-----------5-5(14x)----------5(12x)----------|
d|--5-5(14x)-5-5(14x)-5-(14x)--5(12x)----------|
a|--5-5(14x)-3-3(14x)-5-(14x)--3(12x)----------|
E|--3-3(14x)----------3-(14x)------------------|
      p.m.     p.m.     p.m.     

Bridge- Distorted (repeat first part a few times, then play the bent notes)

e|----------------------------------------------|
b|----------------------------------------------|
g|------7-7-8-8-10-10---------------------------|
d|--5-5-7-7-8-8-10-10-----------10b(11)-10b(12)-|
a|--5-5-5-5-6-6-8--8----------------------------|
E|--3-3-----------------------------------------|

Outro- Distorted
e|----------------------------------------------|
b|----------------------------------------------|
g|-----7-7-5-5-5-5-8-8--------------------------|
d|-5-5-7-7-5-5-5-5-8-8--------------------------|
a|-5-5-5-5-3-3-3-3-6-6--------------------------|
E|-3-3------------------------------------------|
Comments