Shark - California Grrls Chords & Tabs

 

California Grrls Chords & Tabs

Shark Chords & Tabs

Version: 1 Type: Tab 0 ratings
1 star 2 stars 3 stars 4 stars 5 stars
comments

California Grrls Tab

   
intro

guitar 1

E|-s7-8-8-8-8p7-8p7-8p7-8p7-|
B|--------------------------|
G|--------------------------|
D|--------------------------|
A|--------------------------|
E|--------------------------|

guitar 2

E|--5-5--5-4-3-3--3s5-|
B|--5-5--7-6-5-5--5s7-|
G|--6-6--7-6-5-5--5s7-|
D|--7-7--7-6-5-5--5s7-|
A|--7-7--5-4-3-3--3s5-|
E|--5-5--5-4-3-3--3s5-|


[Verse 1]

guitar 2

E|--5-5--5-4-3-3--3s5-----|    x8
B|--5-5--7-6-5-5--5s7-----|
G|--6-6--7-6-5-5--5s7-----|
D|--7-7--7-6-5-5--5s7-----|
A|--7-7--5-4-3-3--3s5-----|
E|--5-5--5-4-3-3--3s5-----|

Don't care about the rest of the world
I hate California girls
Let 'em burn let 'em burn let 'em burn
I hate California girls
Blonde hair and black eyeliner
They try to hurt each other
They lead like lambs to slaughter
They want to kiss each other

[Hook]

guitar 2

E|--3--3--3--3-2-1-3-5-|
B|--5--5--5--5-4-3-3-5-|
G|--5--5--5--5-4-3-4-6-|
D|--5--5--5--5-4-3-5-7-|
A|--3--3--3--3-2-1-5-7-|
E|--3--3--3--3-2-1-3-5-|

Oh, I hate California girls

E|-3-5--3-5--3-5--3-5-3-|
B|-3-5--3-5--3-5--3-5-5-|
G|-4-6--4-6--4-6--4-6-5-|
D|-5-7--5-7--5-7--5-7-5-|
A|-5-7--5-7--5-7--5-7-3-|
E|-3-5--3-5--3-5--3-5-3-|

They don't believe in nothin'

E|--3--3--3--3-2-1-3-5-|
B|--5--5--5--5-4-3-3-5-|
G|--5--5--5--5-4-3-4-6-|
D|--5--5--5--5-4-3-5-7-|
A|--3--3--3--3-2-1-5-7-|
E|--3--3--3--3-2-1-3-5-|

oh, I hate California girls

E|-3-5--3-5--3-5--3-5-3-|
B|-3-5--3-5--3-5--3-5-5-|
G|-4-6--4-6--4-6--4-6-5-|
D|-5-7--5-7--5-7--5-7-5-|
A|-5-7--5-7--5-7--5-7-3-|
E|-3-5--3-5--3-5--3-5-3-|

They don't believe in nothin'

E|-3-5--3-5--3-5--3-5-3-|
B|-3-5--3-5--3-5--3-5-5-|
G|-4-6--4-6--4-6--4-6-5-|
D|-5-7--5-7--5-7--5-7-5-|
A|-5-7--5-7--5-7--5-7-3-|
E|-3-5--3-5--3-5--3-5-3-|

They don't believe in nothin'

[Instrumental]

guitar 1

E|-s7-8-8-8-8p7-8p7-8p7-8p7-|   x2
B|--------------------------|
G|--------------------------|
D|--------------------------|
A|--------------------------|
E|--------------------------|

guitar 2

E|--5-5--5-4-3-3--3s5----|   x2
B|--5-5--7-6-5-5--5s7----|
G|--6-6--7-6-5-5--5s7----|
D|--7-7--7-6-5-5--5s7----|
A|--7-7--5-4-3-3--3s5----|
E|--5-5--5-4-3-3--3s5----|



[Verse 2]


guitar 2
[ Tab from: http://www.guitartabs.cc/tabs/s/shark/california_grrls_tab.html ]
E|--5-5--5-4-3-3--3s5----|   x8
B|--5-5--7-6-5-5--5s7----|
G|--6-6--7-6-5-5--5s7----|
D|--7-7--7-6-5-5--5s7----|
A|--7-7--5-4-3-3--3s5----|
E|--5-5--5-4-3-3--3s5----|

Cigarette in the back of the cab
Forty ounces and an acid tab
Y' feel good for the rest of the night
With a Misfits jacket and a, a pocket knife
Black hair and black sunglasses
Buying their backstage passes
Don't care who else may suffer
Just wants the world to love her


[Hook]

guitar 2

E|--3--3--3--3-2-1-3-5-|
B|--5--5--5--5-4-3-3-5-|
G|--5--5--5--5-4-3-4-6-|
D|--5--5--5--5-4-3-5-7-|
A|--3--3--3--3-2-1-5-7-|
E|--3--3--3--3-2-1-3-5-|

Oh, I hate California girls

E|-3-5--3-5--3-5-3-|
B|-3-5--3-5--3-5-5-|
G|-4-6--4-6--4-6-5-|
D|-5-7--5-7--5-7-5-|
A|-5-7--5-7--5-7-3-|
E|-3-5--3-5--3-5-3-|

They don't believe in nothin'

E|--3--3--3--3-2-1-3-5-|
B|--5--5--5--5-4-3-3-5-|
G|--5--5--5--5-4-3-4-6-|
D|--5--5--5--5-4-3-5-7-|
A|--3--3--3--3-2-1-5-7-|
E|--3--3--3--3-2-1-3-5-|

oh, I hate California girls

E|-3-5--3-5--3-5-3-|
B|-3-5--3-5--3-5-5-|
G|-4-6--4-6--4-6-5-|
D|-5-7--5-7--5-7-5-|
A|-5-7--5-7--5-7-3-|
E|-3-5--3-5--3-5-3-|

They don't believe in nothin'

E|-3-5--3-5--3-5-3-|
B|-3-5--3-5--3-5-5-|
G|-4-6--4-6--4-6-5-|
D|-5-7--5-7--5-7-5-|
A|-5-7--5-7--5-7-3-|
E|-3-5--3-5--3-5-3-|

They don't believe in nothin'

[Instrumental]

guitar 1

E|-s7-8-8-8-8p7-8p7-8p7-8p7-|
B|--------------------------|
G|--------------------------|
D|--------------------------|
A|--------------------------|
E|--------------------------|

guitar 2

E|--5-5--5-4-3-3--3s5-|
B|--5-5--7-6-5-5--5s7-|
G|--6-6--7-6-5-5--5s7-|
D|--7-7--7-6-5-5--5s7-|
A|--7-7--5-4-3-3--3s5-|
E|--5-5--5-4-3-3--3s5-|

[Hook]

just bass and drums

I hate California girls
I hate California girls
I hate California girls
I hate California girls


[Hook: Entire Band]

guitar 1

E|-s7-8-8-8-8p7-8p7-8p7-8p7-|    x4
B|--------------------------|
G|--------------------------|
D|--------------------------|
A|--------------------------|
E|--------------------------|

guitar 2

E|--5-5--5-4-3-3--3s5-----|    x4
B|--5-5--7-6-5-5--5s7-----|
G|--6-6--7-6-5-5--5s7-----|
D|--7-7--7-6-5-5--5s7-----|
A|--7-7--5-4-3-3--3s5-----|
E|--5-5--5-4-3-3--3s5-----|

I hate California girls
I hate California girls
I hate California girls
I hate California girls
Comments