Shania Twain - Love Gets Me Everytime Chords & Tabs

 

Love Gets Me Everytime Chords & Tabs

Shania Twain Chords & Tabs

Version: 1 Type: Tab 0 ratings
1 star 2 stars 3 stars 4 stars 5 stars
comments

Love Gets Me Everytime Tab

Love Gets Me Everytime - Solo  (Shania Twain)

Tabbed by Vintage-Tweed
Played by Brent Manson
Tuning: Dropped D

   1/2 bend             1/4    1/2      1/2  1/2        1/2  1/2      1/2  
e|----------------|-------------------|---------------|------------------|
B|-----0----------|-------------------|---------------|------------------|
G|-----0----------|-------------------|---------------|------------------|
D|-3b-----3p2p0---|---0----0-0------0-|----0------0---|----0----0--------|
A|--------------0-|-3---3b------------|-3b----------0-|-3b---3b-------3b-|
D|----------------|------------2b-0---|------2b-0-----|-----------3-0----|
[ Tab from: http://www.guitartabs.cc/tabs/s/shania_twain/love_gets_me_everytime_tab.html ]
                                                 1/2    1/2
e|-------------3-1-|-----------------|---------|----------------|
B|-----------1-----|-3p2p1-----------|---------|----------------|
G|-----0-1-2-------|-------1-0-------|---------|----------------|
D|-0-3-------------|-----------3p2p0-|-------0-|----0-----------|
A|-----------------|-----------------|-3-2-0---|--------------4/|
D|-----------------|-----------------|---------|-2b---0-2b-0--2/|


e|-------------|------3--------|
B|-----------0-|------3------6-|
G|----0------0-|-3/4------/7---|
D|----0-2/3----|-2/3-----------|
A|/5----1/2----|---------------|
D|/3-----------|---------------|
Comments