Shane Bernard - Psalm 118 Chords & Tabs

 

Psalm 118 Chords & Tabs

Shane Bernard Chords & Tabs

Version: 1 Type: Chords 0 ratings
1 star 2 stars 3 stars 4 stars 5 stars
comments

Psalm 118 Chords

   
Title: Psalm 118
Author: Shane Barnard
Album: Psalms
Copyright: 2001 Waiting Room Records

Capo 1 (everything relative to capo)

Main Riff: Do this 2 times

-----x---------x------------|
-----3---------3------------|
-----2---------2------------|
-----0---------0------------|
-----x---------x------------|
--2--2----2/3--3------------|

On the 3rd time

-----x----x-x--x--3--2--0-|
-----3----3-2--x--3--3--3-|
-----2----2----2--2--2--2-|
-----0----2----0--0--0--0-|
-----x----0---------------|
--2--2--------------------|


Intro: D/F#  G  D/F#  G   D/F#  A  D

Verse: (repeat intro chords)

D/F#                 G
  Give thanks to the Lord
          D/F#  G
For He is good
    D/F#   A        D
His love endures forever
[ Tab from: http://www.guitartabs.cc/tabs/s/shane_bernard/psalm_118_crd.html ]
  He is my strength
And He's my song
His love endures forever

  I will proclaim
What He has done
His love endures forever

Bridge:
F            G                     F
I will enter and give thanks to Him
F           G                            F
  This holy gate, the righteous may enter
F        G
  I will give You thanks
    F
You answered me
    G      A    Bm
You are my salvation

Chorus:
Bm            A                G F#sus F#
  This is the day the Lord has made
Bm          A           G F#sus F#
  I will rejoice and be glad in it
[2x]


Last chorus:
Bm   A  G F#sus F#
Glad....
Bm   A  G          A           Bm
Glad.... I will be glad.... in it
Comments