Shane Bernard - Holy Chords & Tabs

 

Holy Chords & Tabs

Shane Bernard Chords & Tabs

Version: 1 Type: Tab 0 ratings
1 star 2 stars 3 stars 4 stars 5 stars
comments

Holy Tab

   
Song: HOLY
Artist: Shane Barnard
Album:  Upstairs
Tab: JM with Help from Scott

These are near the basic chord structures, or what comes close.
Shane adds a lot of scales and runs in this song.
Therefore making it Complicated to play as he does.
Thanks to Scott for helping me get started on this one. It's a doozy.

Capo 2 *chords relative*

Chords used:
D-0   000230  D 000232 D3 000233
D/C#  x4x230
G/B   x20032
G1    320030  G2 200030
D/F#  200230
A     022200 A1 002230
D4    000077 D5: 000655
G     320033
B#m1  222222
B#m2  224432

A5   xx0225
G5   3x0005


This will give you an idea of a run close to what he does in the song
Related to capo 2

E------------------------------------5--|
B-------------------------12/5------7--|
G--------------------0--2------------7--|
D--------------0-2-3--------------------|
A---------2--3--------------------------|
E---------------------------------------|

Intro:  D D3 D/C# G/B D G1 G2 A A1 A

D          D/C#                  G/B  D
Heaven     forbid                familiarity
              G             G1       A   A1   A
would keep me from Your majesty,     reality
D     D/C#            G/B      D                G             G1            A A1 A
O     Lord of Your proximity     to me and Your beckoning, oh Lord, for me to be

B#m1 B#m   G
                Holy
B#m1 B#m   G
                Holy
B#m1  B#m   G   D/F#   A (picking)
                Holy  as You are
D4   D5   G (picking)     D4        D5   G (picking)
  Ho -  ly,                            Ho -  ly,
D4   D5   G5 (picking)   D5       D5   G (picking)
  ho -  ly,                             ho -  ly

B#m        A   G     A
  You give me mercy
B#m        A   G     A
  You give me grace
B#m        A  G      G2   Em7    (picking)
  You give me mercy, mercy, mercy

D4   D5   G (picking)     D4        D5   G (picking)
  Ho -  ly,                            Ho -  ly,
D4   D5   G5 (picking)   D5       D5   G (picking)
  ho -  ly,                             ho -  ly

Exit: D D/C# G/B D G1 G2 A A1 A D

"Holy"
By Shane Barnard
Tabbed by Tom Huynh (ezra_98@hotmail.com) with help from Scott Cogan

*This is just all the fill-ins that Shane does in the chorus.  Enjoy!

CHORUS:
[ Tab from: http://www.guitartabs.cc/tabs/s/shane_bernard/holy_tab.html ]
			"Holy..."
   (slide part) Bm  B#?    G				     	    Bm B#?
E----------------2--2------------------------------------------------2--2--|
B----------------3--2------------------------------------------------3--2--|
G----------------4--2-------------0-0h2h4-2-0------------------------4--2--|
D----------------4--2-------------------------4-2-0------------------4--2--|
A----------------2--2-------------------------------4-2-0------------2--2--|
E--------2/7-----0--0-------------------------------------0-3/7------0--0--|


  "Holy..."
    G					   	   Bm B#?
E---------------------------------------------------2--2-------------|
B---------------------------------------------------3--2-------------|
G-----------------0-0h2h4-2-0-----------------------4--2-------------|
B---------------------------4-2-0-------------------4--2-------------|
A---------------------------------4-2-0-------------2--2-------------|
E---------------------------------------0-3/7-------0--0-------------|


  "Holy..."		"as You are..."
   D4 D5 G		D/F#    A
E------------------------------------------------------------------------------|
B------------------------------------2-2h3h5-3-2-----------------------3/5/3---|
G------------(0)-0h2h4---------------------------4-2-2h4---4h2-----2h4---------|
B--------------------------------------------------------------4h2-------------|
A------------------------------------------------------------------------------|
E------------------------------------------------------------------------------|


   "Holy..."				"Holy..."
    D4 D5 G				D4 D5 G
E-----------------------------------------------------------------------|
B-------------------------3/5/3--------------------------------5h3------|
G-----------0-0h2-----2-4---------------------------0-0h2--2-4----------|
B-----------------2-4---------------------------------------------------|
A-----------------------------------------------------------------------|
E-----------------------------------------------------------------------|


   "Holy..."				"Holy..."
    D4 D5 G				D4 D5 G				      *verse here
E-----------------------------------------------------------------------------|
B-------------------------3/5/3-----------------------------------------------|
G-----------0-0h2-----2-4--------------------------0-0h2-0--------------------|
B-----------------2-4--------------------------------------4-2-0------------0-|
A----------------------------------------------------------------4~4~4~4~4~---|
E-----------------------------------------------------------------------------|


(Last "Holy" on second chorus leading to bridge)
   "Holy..."							"You give me mercy..."
   D4 D5 G				|pick very fast!|  Bm
E----------------------------------------------------------2-----------|
B----------------------------------------------------------3-----------|
G-----------0-0h2-0-------------------------------2-0------4-----------|
B-------------------4-2-0----------------------2h4----4----4-----------|
A-------------------------4~4~4~4~4~----0-0h2h4------------2-----------|
E----------------------------------------------------------0-----------|


Riff after Shane sings "You give me mercy, mercy, mercy":
					D? (strum this)
E---------------------------------------5-555--5555-----------------------|
B----------------------------0-2-3/5----7-777--7777-----------------------|
G----------------------0-2-4------------6-666--7777-----0-0h2-0-----------|
B---------0-2-4--0-2-4------------------------------------------4-2-0-----|
A---0-2-4-------------------------------------------------------------4~--|
E-------------------------------------------------------------------------|
Comments