Shane Bernard - Glory Chords & Tabs

 

Glory Chords & Tabs

Shane Bernard Chords & Tabs

Version: 1 Type: Tab 0 ratings
1 star 2 stars 3 stars 4 stars 5 stars
comments

Glory Tab

   
'Glory' by Shane Barnard
Album:  Rocks Won't Cry
Tabbed by Chris Richardson

Use partial 3-4-5 capo on second fret, covering only the A, D, & G strings
h-hammer on
p-pull off
H-harmonic
s-slide

D...000200
A...002200
G...320000
Em..z22000 (cover the open E on the fret the capo is on)

Tabbed relative to capo.

Intro
e------0-------0-------0-----0-------0-------0-----0-----|
B--------0-------0-------------0-------0-------------0---|
G--6s7-----6s7-----6s7---6s7-----6s7-----6s7---7s2-----2-|
D--------------------------------------------------------|
A--------------------------------------------------------|
E--------------------------------------------------------|

e--0-----0--------0-------0-------------H7---|
B----0----------------------------------H7---|
G------2---2--------0-------0-----------H7---|
D-------------4h5-----4h5-----4h5p4-2-0-H7---|
A---------------------------------------H7---|
E---------------------------------------H7---|

e--0---0-----5-3-2-0-----0----------------|H5
B--0-----2-----------------2--------------|
G--2-2-------------------------0----------|
D--0-----------------0h2-----2---2s4-0----|
A--0--------------------------------------|
E--0--------------------------------------|
[ Tab from: http://www.guitartabs.cc/tabs/s/shane_bernard/glory_tab.html ]
e-----0-------0-------0---------0-----0-----0--|R
B-------0-------0-------0---------0-----0---0--|E
G---------0h2-----0h2---------0-----0-------0--|P
D-------------------------------------------0--|E
A-0h2---------------------2s5---------------2--|A
E-----------------------------------------3-3--|T
Repeat the part after the intro (after harmonic on 7th) four times.  Then play D..Em..G once
then this scale.

e---------------------0--------               e-0---0---0--|
B-------------------2-0-------- And then      B-0---0---0--|
G-------------0-2-4---2-------- strum this    G-0---0---6--|
D-------0-2s4---------0-------- progression   D-2s4-5s7-7--|
A-0-2-4---------------0-------- the next time A-0---0---0--|
E---------------------0--------               E-0---0---0--|

So it works like, the first time through the chorus play the scale, then play the
progression like the next three times. Then he taps the guitar, does the beginnin
again and then do the same deal with D, Em, G the scale once, the D, Em, G and the
progression three times.  Then he Goes into "Your Name is so Alive" and thats just
Em and A then that progression, then back to the chorus.  If this isn't clear just
email, and I'll try to explain better, just listen for the squeaky slides and that
when the progression is.  Fun Song.
Comments