Shamrock - Paano Chords & Tabs

 

Shamrock Chords & Tabs

Version: 1 Type: Tab 0 ratings
1 star 2 stars 3 stars 4 stars 5 stars
comments

Paano Tab

                                                                               
  
  Song:Paano
  Artist:Shamrock
  Tabbed by:kamikazee0123

  Intro:
  e----------------------------------------------------------------------|
  b----------------------------------------------------------------------|
  g----------------------------------------------------------------------|
  d----------------------------------------------------------------------|
  a----12-----12h14-12----12---------------------------------------------|
  e-14----14-----------14------------------------------------------------|
  
  Pangako ko ang puso mo'y hindi pakakawalan
 
  (eto yung riffle sa song)
  e----------------------------------------------------------------------|
  b----------------------------------------------------------------------|
  g----------------------------------------------------------------------|
  d-11h12/11----11-12-11----12-------------------------------------------|
  a----------14----------14----14-12-10-10/12----------------------------|
  e----------------------------------------------------------------------|

  Sana pagbigyan mo hiling ng puso ko

  e----------------------------------------------------------------------|
  b----------------------------------------------------------------------|
  g----------------------------------------------------------------------|  
  d----------------------------------------------------------------------|
  a-------12----12h14-9-10-10/12-----------------------------------------|
  e-12-14----14----------------------------------------------------------|

  Pag-ibig ko'y ikaw wala ng iba
[ Tab from: http://www.guitartabs.cc/tabs/s/shamrock/paano_tab.html ]
  e12-10-9h10-9----------------------------------------------------------|
  b-------------10/12/10-------------------------------------------------|
  g----------------------------------------------------------------------|  
  d----------------------------------------------------------------------|
  a----------------------------------------------------------------------|
  e----------------------------------------------------------------------|

  Paano mo malalaman ang......Kung lagi kang kinakabahan...

  e----------------------------12------------------------------14--------|
  b----------------------------------------------------------------------|
  g----------------------11/12---------------------------12/14-----------|
  d----------------------------------------------------------------------|
  a----------------------------------------------------------------------|
  e----------------------------------------------------------------------|
  Outro: 
  e--------------------14B-12-14B--14------------------------------------| 
  b--------------10-12----------------15B--------------------------------|
  g---------9-11---------------------------------------------------------|
  d----9-12--------------------------------12-14-9-12--17-16-14-17-------|
  a-12-------------------------------------------------------------------|
  e----------------------------------------------------------------------|
  
  e-------------------------------------------------------14-17B-14-14B--|
  b----------------------------------------------------------------------|
  g--islide-nyo-lang-mula-sa-lower-papunta-sa-higher-fret----------------|
  d--s13B---s14B---------------------------------------------------------|
  a----------------------------------------------------------------------|
  e----------------------------------------------------------------------|
  
  e-12-------------------------------------------------------------------|
  b----15-12--------------------------------Hanggang-dyan-na-lang-muna---|
  g----------14--------------s12B-s13B-s14B-hindi-ko-na-alam-yung-iba----|
  d-------------16-14--14/16---------------------------------------------|
  a----------------------------------------------------------------------|
  e----------------------------------------------------------------------|
  post na lang kaung comment...

  frienster users.....add nyo ko...j_lipio@yahoo.com

  pm nyo ko kung mganda....




 

 

  
Comments