Shamrock - Alipin Chords & Tabs

 

Alipin Chords & Tabs

Shamrock Chords & Tabs

Version: 1 Type: Tab 0 ratings
1 star 2 stars 3 stars 4 stars 5 stars
comments

Alipin Tab

   
Artist: Shamrock
Song: Alipin
e-mail:regipaulslasia@yahoo.com.ph

Intro:
   G               Bmin7       C           Maj7       add9
E:-------3---------------2-----0-----------------0--------------------|
B:-3---------3-----3-----------------------0----------3-------0-------|
G:---------------------2-------0-------------0--------------0---------|
D:-5-----------5-----------------------2--------------------------5p0-|
A:-----5-------5p0-2-----------3---------------3----------------------|
E:-3------------------------------------------------------------------|
                                                                   


   G               Bmin7       C           Maj7       add9
E:-------3---------------2-----0-----------------0--------------------|
B:-3---------3-----3-----------------------0----------3-------1p0-----|
G:---------------------2-------0-------------0--------------0-----0---|
D:-5-----------5-----------------------2------------------------------|
A:-----5-------5p0-2-----------3---------------3----------------------|
E:-3----------------------------------------------------------------0-|

I.Verse:
    G(9)                           Bmin7 
E:--------------------------------|-------------------------------|
B:--------------------------------|3-----3-T---3-----------3------|
G:-2-------T---0-----------0------|2-----2-A---0-----------0---0--|
D:-0-----0-A---0-------0---0---0-0|-------------------------------|
A:---------P----------------------|2-------P---2-----------2-----0|
E:-3------------------------------|-------------------------------|

              
 C9                              D           add9
|------------0------------------|------------0-------------------|
|3-----3-T---3-----------3------|3-----3-T---3-----------3-------|
|0-----0-A---------------0---0--|2-----2-A---------------2---2---|
|-------------------------------|0-------P---0-----------0-----0-|
|3-------P---3-----------3---3p0|--------------------------------|
|-------------------------------|--------------------------------|

(Repeat the same chord pattern until Refrain)

Slight variation before Refrain:

 D           add9
|------------0------------------|
|3-----3-T---3-----------3---3\-|
|2-----2-A---------------2---2\-|
|0-------P---0-----------0------|
|-------------------------------|
|----------------------------0--|

Refrain:

   Amin7                           G(9)    
E:-------------0------------------|-------------------------------|
B:-1-------1---------------1------|------------0-----------0------|
G:-0---------------------------4--|2-------T---0-----------0-----0|
D:-----2h4-------------2---------2|------0-A---0-------0-------0--|
A:-0-----------0------------------|-------------------------------|
E:--------------------------------|3-------P---3------------------|


 Amin7                           D9 
|0-----------------------0------|0------------------------------|
|1---1-------1-----------1------|3-----3-T---3-----------3---3--|           
|0---0---T---0-----------0---0--|------2-A---2-----------2-----2|
|2-------A---2-----------2------|0-------P---0-----------0------|
|0-------P---0-----------------0|-------------------------------|
|-------------------------------|-------------------------------|


 Dsus        D
|3-----------2-------------------|
|3-----3-T---3-----------3-------|
|------2-A---------------2---2---|
|0-------P---0-----------0-------|
|------------------------------0-|
|--------------------------------|

                          
Chorus:
  C9                              Bmin7       addsus4   
E:-------------0------------------|2-----------2------------------|
B:-3-----3-T---3-----------3------|3-----3-T---5-----------3------|
G:-0-----0-A---------------0---0--|2-----2-A---2-----------2---0--|
D:--------------------------------|-------------------------------|
A:-3------ P---3-----------3-----0|2-------P---2-----------------0|
E:--------------------------------|-------------------------------|

   

 C9                              Emin6                         
|------------0-----------------|-------------0-----------------|
|3-----3-T---3-----------3-----|-0-------0---------------0-----|
|0-----0-A---0-----------4---0-|-0-----0---------------------4-|
|--------------------2---------|-4---4---------------4---------|
|3------ P---3-----------------|-------------------------------|
|------------------------------|-0-----------------------------|

    
Amin7
|-------------0------------------|-------------------------------|
|-1-------1---------------1------|------------0-----------0------|
|-0---------------------------4--|2-------T---0-----------------0|
|-2---2h4-------------2---------2|------0-A-----------0-------0--|
|-0-----------0------------------|--------------------------2----|
|--------------------------------|3-------P---3------------------|

                
 Amin7                           D9                            
|0-----------------------0------|0------------------------------|
|1---0---T---1-----------1------|3-----3-T---3-----------3------|
|0---0---A---0-----------0---0--|------2-A---2-----------2---2--|
|------------2-----------2------|0-------P---0-----------0-----0|
|0-------P---0-----------------0|-------------------------------|
|-------------------------------|-------------------------------|
   
[ Tab from: http://www.guitartabs.cc/tabs/s/shamrock/alipin_tab.html ]
Outro:
  G               Bmin7       C           Maj7       add9
E:------3--------|------2--|--0-----------------0-----------------|
B:3---------3----|3--------|--------------0----------3---------3--|
G:0-----------0--|----2----|--0-------------0----------0-----0---0|
D:----0----------|---------|----------2------------------0h2------|
A:--------------0|2--------|--3---------------3-------------------|
E:3--------------|---------|--------------------------------------|

  G               Bmin7       C           Maj7       add9
E:------3--------|------2--|--0-----------------0--------------(12)|
B:3---------3----|3--------|--------------0----------3-------(12)--|
G:0-----------0--|----2----|--0-------------0----------0---(12)----|
D:----0----------|---------|----------2------------------x---------|
A:--------------0|2--------|--3---------------3--------------------|
E:3--------------|---------|---------------------------------------|

(Repeat 1st Stanza Verse, Refrain and Chorus pattern for 2nd Stanza)


Slight variation in 2nd stanza chorus:
  C9                              Emin6                   
E:------------0-----------------|-------------0-----------------|
B:3-----3-T---3-----------3-----|-0-------0---------------0-----|
G:0-----0-A---0-----------4---0-|-0---------------------------4-|
D:--------------------2-------4-|-4---4h5-------------4---------|
A:3------ P---3-----------------|-------------------------------|
E:------------------------------|-0-----------------------------|
 

 Amin      add9
|-------------0-------------------|
|-1-------1p0-----------0-1p0-0---|
|-------2-------------------------|
|-----2---------------2---------2-|
|-0-----------0-------------------|
|---------------------------------|
                
Interlude: 

E:|------------------------------------------------------------|            
B:|------------------------------------------------------------|
G:|------------------------------------------------------------|              
D:|-----------------5\--0-0-----7-7-------------------------0h5|
A:|------------------------------------------------------------|
E:|------------------------------------------------------------|
    G                             D9                          
E:|-------3-----3---------------|-0-----------0h2p0h2-----0----|
B:|-3-----3-3---3---------3-----|-3-----3-3---3-------3---3----|
G:|-0-----0-0-------------0---2-|-2-----2-2-----------2---2----|
D:|-0-------0-------------0---0-|-0-------0-----------0---0----|
A:|---------------------------0-|------------------------------|
E:|-3---------------------------|------------------------------|
    
  
  |------------------------------------------------------------|
  |------------------------------------------------------------|
  |------------------------------------------------------------|
  |7/9---10-9-----7-7\----5-5-----7-7--------------------------|
  |------------------------------------------------------------|
  |------------------------------------------------------------|
      Em                              Bmin7
  |---0-------0---------------0---|---------------2-2---------2|
  |---0-------0-----0---0-----0---|---3-----3-3---3-3---3-----3|
  |---0-----0-0---0-0---0-----0---|---2-----2-2---2-2-2-2-2---2|
  |---2-----2-2---2-2-2---2---2---|---4-------4---4---4---4---4|
  |---2-----2-2---2---2---2---2---|---2-----------2------------|
  |---0---------------0-------0---|----------------------------|
      

E:|------------------------------------------------------------------------|
B:|------------------------------------------------------------------------|
G:|------------------------------------------------------------------------|
D:|------10---9-------7-------9------------10---9------/7-------5---7-5-4-5|
A:|--5h7--------------------------10---5h7---------------------------------|
E:|------------------------------------------------------------------------|
          Amin7                           G 
E:|-------0-------0---0-0---0-----0---|------------------------------------|
B:|-------1-----1-1---1-1-1-1-----1---|---3-------0---3-----------3-3---3--|
G:|-------0-----0-0---0---0-0-0---0---|---0-----0-0---0-0---0-----0-0-0-0--|
D:|-------2-------2---2---2---2---2---|---0-----0-0---0-0-0-0-0---0---0----|
A:|-------0-----------0---------------|---2-------2-------2---2------------|
E:|-----------------------------------|---3---------------3----------------|
          

  |-----------------------------------------------------------------|
  |-----------------------------------------------------------------|
  |-----------------------------------------------------------------|
  |/10---9-------7-------5-------0----------------------------------|
  |-----------------------------------------------------------------|
  |-----------------------------------------------------------------|
    C                               D                   Bridge:
  |-0-----0-----0-0-0-------------|-2-------------2p0h2-------------|
  |-1-----1-0---1-1-1-1-1---1-----|-3-----3-3---3-------3---3-------|
  |-0-----0-0---0---0-0-0---0---0-|-2-----2-2-----------2---2-------|
  |-2-------2---2---2---2---2---2-|-0-------0---0-------0-----------|
  |-3-----------------------3-----|-----------------------------0---|
  |-------------------------------|-------------------------------0-|
    
Bridge:(Do chorus chord pattern)

End part:Repeat Outro

(slight variation before the outro)

E:|-----------------------|
B:|-----------------------|
G:|-----------------0-----|
D:|---------3/4-----------|
A:|---------4/5-----------|
E:|-----------------------|



h  =  hammer on
p  =  pull off
/  =  slide up
\  =  slide down
x  =  dead string
() =  natural harmonic



Comments