Sham 69 - What Have We Gotlive Chords & Tabs

 

What Have We Gotlive Chords & Tabs

Sham 69 Chords & Tabs

Version: 1 Type: Bass Tab

What Have We Gotlive Bass Tab

Time:20.31
Date: 8/March/06

Alright sham,classic old school punk. This one is played with 2 notes.

Intro/Chorus
G--------------------------------------------------------------------|
D--------------------------------------------------------------------|
A---------------5--5-------------------------------------------------|
E--5--5--5--5----------5--5------------------------------------------|
[ Tab from: http://www.guitartabs.cc/tabs/s/sham_69/what_have_we_gotlive_btab.html ]
Verse
G--------------------------------------------------------------------|
D--------------------------------------------------------------------|
A--5--5--5--5--------------------------------------------------------|
E--------------5--5--5--5--------------------------------------------|

Progression
Intro x8
Verse x6
Chorus x4
Guitar Solo(just play verse)x4
Chorus x4
Verse x4
Chorus x4

END