Shalamar - A Night To Remember Chords & Tabs

 

A Night To Remember Chords & Tabs

Shalamar Chords & Tabs

Version: 1 Type: Bass Tab 0 ratings
1 star 2 stars 3 stars 4 stars 5 stars
comments

A Night To Remember Bass Tab

Came up with the notes myself so they may not be as they are. 
Please correct me if a mistake was made. :) 
Also, I have not added in variations.
[ Tab from: http://www.guitartabs.cc/tabs/s/shalamar/a_night_to_remember_btab.html ]
Into & Chorus (Bass comes in at 0:10)
G|--------------------------|
D|--------------------------|
A|-5-555-5-------3-3----1-1-|
E|--------5-555-5----1-1----|

Verse
G|--------------------------|      
D|--------------------------|
A|-1--1-1-1--1--0--0-0-0--0-| -X3
E|--------------------------|

End Of Verse/ Pre-Chorus
G|--------------|
D|--------------|
A|-5~---7~---3~-|
E|--------------|

Great Song. Hope You All Enjoy :)
Comments