Shakur Tupac - California Love Chords & Tabs

 

California Love Chords & Tabs

Shakur Tupac Chords & Tabs

Version: 1 Type: Bass Tab 0 ratings
1 star 2 stars 3 stars 4 stars 5 stars
comments

California Love Bass Tab

  SONG: California Love
ARTIST: 2Pac w/ Dr. Dre
 ALBUM: All Eyez On Me

Tabbed by Dan Coates (dcoates@disconnect.net)
Dropped D tuning, key of Bb (or something)

this is the main riff. there are a couple variations on it, but
i didn't want to type them out here because they're all based
off this and they're pretty easy to figure out.
[ Tab from: http://www.guitartabs.cc/tabs/s/shakur_tupac/california_love_btab.html ]
G|----------------------------------------------------------------
D|----------------------------------------------------------------
A|------------------------0---------------------------------------
D|-5-7-5-5------0-3-4-3-5---8---8-7---7-5---0-3---3---3---3-----5-

G|-------------------------------------------
D|-------------------------------------------
A|---0---1---3-3-5---5-3---3-1---1-0---0-----
D|-5-----------------------------------------

Comments