Shakira - Whenever Wherever Chords & Tabs

 

Whenever Wherever Chords & Tabs

Shakira Chords & Tabs

Version: 2 Type: Tab 0 ratings
1 star 2 stars 3 stars 4 stars 5 stars
comments

Whenever Wherever Tab

   
Theres a chord part here but for Wherever whenever we're meant to be toghether....

E --2--2--0--4--4--0--5--5--0--4--0--2--0
B ---------------------------------------
G ---------------------------------------
D ---------------------------------------
A ---------------------------------------
E ---------------------------------------
[ Tab from: http://www.guitartabs.cc/tabs/s/shakira/whenever_wherever_tab_ver_2.html ]
There's actually three (verse = chorus) different parts in this song. 
Its Annoying...

INTRO
E -------------------------------------------
B --------5-----------4-----2----------------
G ----2-----------2-----------2--------------
D --4---4-------4---4-----------4------------
A --------------------------------2--4-------
E -------------------------------------------

C#m               F#m    B *2
Oioo.............


VERSE: (repeat chords four times)

Comments