Shakira - Whenever Wherever Chords & Tabs

 

Whenever Wherever Chords & Tabs

Shakira Chords & Tabs

Version: 1 Type: Tab 0 ratings
1 star 2 stars 3 stars 4 stars 5 stars
comments

Whenever Wherever Tab

   
Shakira
Whenever, Wherever
Corrected by (((SeaN)))  


INTRO:
e|--------------0-----------------------------------------|
B|------------------------------4---------2---------------|
G|--------2----------------2------------------2-----------|
D|-----4----4-----------4----4-------------------4--------|
A|---------------------------------------------------2--3-|
E|--------------------------------------------------------|
[ Tab from: http://www.guitartabs.cc/tabs/s/shakira/whenever_wherever_tab.html ]
Chords used
C#m (046654)
F#m (244222)
B   (x2444x)
G#m (466444)
A   (x02220)
E   (022100)


C#m . F#m B x2

The riff here goes

E|---------------------------------------
B|---------------------------------------
G|---------------------------------------
D|---------------------------------------
A|-----------0---4-----7-/-0----0---2----
E|-2------2------------------------------

Chorus

C#m . F#m B x2

Verse 2 (same chords as verse one)


All the other bits are just repeated from previous chords/riffs

Have fun!
Comments