Shakira - Underneath Your Clothes Chords & Tabs

 

Underneath Your Clothes Chords & Tabs

Shakira Chords & Tabs

Version: 5 Type: Tab 0 ratings
1 star 2 stars 3 stars 4 stars 5 stars
comments

Underneath Your Clothes Tab

Hey,  This is for whoever needed this song really bad.  It's not perfect in a few spots 
but its really close. By the way check out the song I wrote under "misc. your songs" its 
called "Change".

Tuning-EADGBe



Intro

---------------------------
---------------------------
------5--------------------
--------6--8-8--6-----5-5-5
-----------------4----4-4--
---4-----------------------


---------------------------
---------------------------
------5--------------------
--------6--8-8/11----5/6\5-
---------------------------
---4-----------------------


Verse

----1---------4-3------        
------1----------------        
--3-----1--------------    2x's    
-----------4-----------        
-----------------------
-----------------------

Pre-Chorus

-4-4---3-3---1-1---4-3-
-----------------------
-----------------------
-----------------------
-----------------------
-----------------------

-4-4----4--------3-3---
-------2---------------
------1----------------
-----3-----------------
-----------------------

Chorus

----------------------------
----------------------------
----------------------------
-----6-----10----11---11--11    2x's
-----6-----10----11-----11--
---4-4---8-8---9-9--9-------
[ Tab from: http://www.guitartabs.cc/tabs/s/shakira/underneath_your_clothes_tab_ver_5.html ]
----------------------------
----------------------------
----------------------------
-----6-----8--13------------
----3------8--13------------
---4---4---6--11------------

Pre-Verse

----------------------------
----------------------------
----------------------------
----------------------------
---------3/6--6-------------
---4---4--------------------

Repeat Verse 

Repeat Pre-Chorus

Repeat Chorus



Interlude

--------------------------------------
--------------------------------------
--------------------------------------
---16--------14--------13--------11---
---16-strum--14-strum--13-strum--11---
---14--------12--------11--------9----

Solo

-------------------------------------------------------
-------------------------------------------------------
-------------------------------------------------------
--10-----------------------10--------------------------
--10-strum-----10--6--8~---10-strum-----10--6--10--8~--
--8------------------------8---------------------------

---------------------------------------------------------
---------------------------------------------------------
---------------------------------------------------------
--10------------------------10---------------------------
--10-strum-----13--8--10~---10-strum-----13--8--10--8--6~
--8-------------------------8----------------------------

Repeat Chorus
Comments