Shakira - Underneath Your Clothes Chords & Tabs

 

Underneath Your Clothes Chords & Tabs

Shakira Chords & Tabs

Version: 2 Type: Tab 1 rating
1 star 2 stars 3 stars 4 stars 5 stars
comments

Underneath Your Clothes Tab






New Page 1



[ Tab from: http://www.guitartabs.cc/tabs/s/shakira/underneath_your_clothes_tab_ver_2.html ]
#----------------------------------PLEASE NOTE-------------------------------------#
# This file is the author's own work and represents their interpretation of the    #
# song. You may only use this file for private study, scholarship, or research     #
#----------------------------------------------------------------------------------#
Shakira - Underneath Your Clothes
Shakira 
Album  : Laundry Service
Tabs by : Anupong (enternights@hotmail.com)
                               (Icq-99669936)
 
Intro
 e --------------------------------------------------
 B --------------------------------------------------
 G ----------5------3--3--1-------------------------- 
 A -------------6------------------5---5---5---------
 D ----------------------------4-----4---4-----------
 E ------4-------------------------------------------
 
  e --------------------------------------------------
 B --------------------------------------------------
 G ----------5------3-------------------------------- 
 A -------------6----------------5h6p5---------------
 D -------------------1/4----------------------------
 E ------4-------------------------------------------
 
Solo
 
  e --------------------------------------------------
 B --------------------------------------------------
 G ----8/10\8----------------------------------------
 A -----------(8 Full Bend And Hold)-----------------
 D --------------------------------------------------
 E -------------------------------------------------- 
 
  e --------------------------------------------------
 B --------------------------------------------------
 G --------------------------------------------------
 A ----(8 Half Bend)-6--8--(8 Full Bend And Hold)----
 D --------------------------------------------------
 E --------------------------------------------------
 
  e --------------------------------------------------
 B --------------------------------------------------
 G ----8/10\8----------------------------------------
 A -----------(8 Full Bend And Hold)-----------------
 D --------------------------------------------------
 E --------------------------------------------------
 
  e --------------------------------------------------
 B --------------------------------------------------
 G -------------------------------------------------- 
 A ----(8 Full Bend)(8 Full Bend And Release)-6/8\6--
 D --------------------------------------------------
 E --------------------------------------------------
 
 
Lyric

You're a song
Written by
The hands of God
Don't get me wrong
This might sound
To you a bit odd
But you're the place
Where all my thoughts
Go hiding
Right under your clothes
Is where I'll find them

Underneath your clothes
There's an endless story
There's the man I chose
There's my territory
And of all the things
I deserve
For being such
A good girl honey

Because of you
I forgot the
Smart ways to rhyme
Because of you
I'm running out of
Reasons to cry
When the friends are gone
When the party's over
We'll still belong
To each other

Underneath your clothes
There's an endless story
There's the man I chose
There's my territory
And of all the things
I deserve
For being such
A good girl honey





Comments