Shakira - Tu Chords & Tabs

 

Tu Chords & Tabs

Shakira Chords & Tabs

Version: 1 Type: Tab 0 ratings
1 star 2 stars 3 stars 4 stars 5 stars
comments

Tu Tab

   
Shakira
Tu
Tabbed by Aries_Mata05, Chile.

Intro:					       I----------|II----------|
E|-------------------------------------0-------|----------|------------|
B|--------0h1---------------1------1h3-----1---|--------3-|------3-----|
G|------2-----2---2-----0--------0-------0---0-|----0-----|--------0---|
D|----2---------2-----3---3--------------------|--0---0---|----------0-|
A|--0---------------3----------3---------------|----------|----2-------|
E|---------------------------------------------|3---------|-3----------|

Verso1:
E|---------0-----------------|----------------------------|
B|-----1h3-----1-----------3-|-------0h1---------------1--|
G|---0-------0---0-------0---|-----2-----2---2-----0------|
D|---------------------0-----|---2---------2-----3---3----|
A|-3-----------------2-------|-0---------------3----------|
E|-----------------3---------|----------------------------|

E|---------0-----------------|----------------------------|
B|-----1h3-----1-----------3-|--------0h1-1------1--------|
G|---0-------0---0-----0-----|------2-----0----0---0---0--|
D|-------------------0---0---|----2-------3--3-------3----|
A|-3-------------------------|--0---------3---------------|
E|-----------------3---------|------------0---------------|

E|---------0-----------------|----------------------------|
B|-----1h3-----1-----------3-|-------0h1---------------1--|
G|---0-------0---0-----0-----|-----2-----2---2-----0------|
D|-------------------0---0---|---2---------2-----3---3----|
A|-3-------------------------|-0---------------3----------|
E|-----------------3---------|----------------------------|

E|---------0------------------|------------0--------------|
B|-----1h3-----1-----------3--|-------0h1--1--------------|
G|---0-------0---0-----0------|-----2------0--------------|
D|-------------------0---0----|---2--------3--------------|
A|-3--------------------------|-0----------3--------------|
E|-----------------3----------|------------0--------------|

PreChorus:
Dm                  C/F
  mis zapatos desteñidos
                          Am
  el diario en el que escribo
                       F
  te doy hasta mis suspiros
                    G
  pero no te vayas mas

Chorus:
               C
 Por que eres tú mi sol
     Gm
 la fe con que vivo
  Am
 la potencia de mi voz
      F              G
 los pies con que camino 
       C
 eres tú amor
      Gm
 mis ganas de reír 
       Am
 el adiós que no sabré decir
       F           G
 por que nunca podré vivir...
        
 sin ti

Inter: the same as the intro.
[ Tab from: http://www.guitartabs.cc/tabs/s/shakira/tu_tab.html ]
Verso2
E|---------0-----------------|----------------------------|
B|-----1h3-----1-----------3-|-------0h1---------------1--|
G|---0-------0---0-----0-----|-----2-----2---0-----0------|
D|-------------------0---0---|---2---------2-----3---3----|
A|-3-------------------------|-0---------------3----------|
E|-----------------3---------|----------------------------|

E|---------0-----------------|----------------------------|
B|1----1h3-----1-----------3-|--------0h1-1------1--------|
G|---0-------0---0-----0-----|------2-----0--------0---0--|
D|-------------------0---0---|----2-------3----3-----3----|
A|-3-------------------------|--0---------3--3------------|
E|-----------------3---------|------------0---------------|

E|---------0-----------------|----------------------------|
B|-----1h3-----1-----------3-|-------0h1---------------1--|
G|---0-------0---0-----0-----|-----2-----2---0-----0------|
D|-------------------0---0---|---2---------2-----3---3----|
A|-3-------------------------|-0---------------3----------|
E|-----------------3---------|----------------------------|

E|---------0-----------------|-------------0--------------|
B|-----1h3-----1-----------3-|-0------0h1--1--------------|
G|---0-------0---0-----0-----|------2------0--------------|
D|-------------------0---0---|----2--------3--------------|
A|-3-------------------------|--0----------3--------------|
E|-----------------3---------|-------------0--------------|


Prechorus

Dm                  C/F
  Te regalo mis silencios,
                  Am
  te regalo mi nariz
                       F
  yo te doy hasta mis huesos
                    G
  pero quédate aquí


Chorus


Outro:					       I----------|II----------|
E|-------------------------------------0-------|----------|------------|
B|--------0h1---------------1------1h3-----1---|--------3-|------3-----|
G|------2-----2---------0--------0-------0---0-|----0-----|--------0---|
D|----2---------2-----3---3--------------------|--0---0---|----------0-|
A|--0---------------3----------3---------------|----------|----2-------|
E|---------------------------------------------|3---------|-3----------|

E|----------------------------|---------0-----------------|
B|--------0h1---------------1-|-----1h3-----1-------3-----|
G|------2-----2---0-----0-----|---0-------0---0---0---0---|
D|----2---------2-----3---3---|-------------------------0-|
A|--0---------------3---------|-3-------------------------|
E|----------------------------|-----------------3---------|

E|----------------------------|---------0-----------------|
B|--------0h1---------------1-|-----1h3-----1-----------3-|
G|------2-----2---------0-----|0--0-------0---0-----0-----|
D|----2---------2-----3---3---|-----------------------0---|
A|--0---------------3---------|-3-------------------------|
E|----------------------------|-----------------3---------|

e-mail: aries_mata05@hotmail.com
Comments