Shakira - The One Chords & Tabs

 

The One Chords & Tabs

Shakira Chords & Tabs

Version: 1 Type: Tab 0 ratings
1 star 2 stars 3 stars 4 stars 5 stars
comments

The One Tab

Tabbed out by : Charlotte_Punk 
Now this tab is the only one on this site so far an 
all the other sites i know dont have a tab for it so
heres my interpratation of the song

standard tuning 
play soflty but not to soft you'll get the hang of it...
An this song is played on an ele-acoustic i only have an acoustic 
so yeah an dont put your fingers to hard on the strings you need to 
make it like theres feed back aso slide on the strings a little

h - harmonic - wiggle finger on fret to get an echo noise
s - slide - slide long strings 

guitar 1 intro:

E|------------------------------------------------------
B|------------------------------------------------------
G|-----s11-----s10-----s9---s8--------s11------s10------ repeat about 3x
D|--0------0------0----------------0---------0----------
A|------------------------------------------------------
E|------------------------------------------------------

guitar 2 intro:
just at the start it comes in when guitar 1 plucks the first string

E|--h9--------------------------------------------------
B|------------------------------------------------------
G|------------------------------------------------------ 
D|------------------------------------------------------
A|------------------------------------------------------
E|------------------------------------------------------

combind intro: or if u wont a solo kinda thing just do this:
[ Tab from: http://www.guitartabs.cc/tabs/s/shakira/the_one_tab.html ]
E|---h9-------------------------------------------------
B|------------------------------------------------------
G|-------s11-----s10-----s9---s8--------s11------s10---- repeat about 3x
D|0-----------0------0---------------0--------0---------
A|------------------------------------------------------
E|------------------------------------------------------


 
verse and part chorus
guitar 1 : this goes into the chorus same as guitar 2 down there


E|------------------------------------------------------
B|------------------------------------------------------
G|--11------11-------11--------s10-------s9------------- repeat about 5x 
D|--0--------0-------0------0----------0----------------
A|------------------------------------------------------
E|------------------------------------------------------

guitar 2: it plays this kind of tune on electric guitar
while guitar 1 the acoustic plays the one that the top

E|----------------7-------------------------------------
B|---7------9------------5--------7---------------------
G|------------------------------------------------------ repeat about 5x
D|------------------------------------------------------
A|------------------------------------------------------
E|------------------------------------------------------


guitar 1 : this is the end of the acoustic then the electric takes over
E|-------------------------------------------------------
B|-------------------------------------------------------
G|--11----10----9---------------------------------------- repeat 2x
D|--0-----0-----0----------------------------------------
A|-------------------------------------------------------
E|-------------------------------------------------------

And thats all i've tabbed for now haven't got my electric yet
so i cant tab the electric out soz guys. So ne one out there recons they can
tab the electric by all means tab it. Any corrections comments ect: send to
global_prankster@hotmail.com by
Comments