Shakira - Te Dejo Madrid Chords & Tabs

 

Te Dejo Madrid Chords & Tabs

Shakira Chords & Tabs

Version: 2 Type: Tab 0 ratings
1 star 2 stars 3 stars 4 stars 5 stars
comments

Te Dejo Madrid Tab

Shakira - TE DEJO MADRID
Tabbed By: kaYLA
EMail: xxsanteriaxx@aol.com


 THIS IS BEGINING play as many times as needed

|------------------------------------------------------|
|------------------------------------------------------|
|------------------------------------------------------|
|------------------------------------------------------|
|------------------------------------------------------|
|-2-2-2-2-0-0-0-0-7-7-7-2---2-2-2-2-0-0-0-0-7-7-7-2----|

then this with wah

|----------------------------------------------------------------|
|----11-11----11------11-11---11------11-11----11-------9---9----|
|-11-------11----11-8-------8----8-10-------10----10--8---8------|
|----------------------------------------------------------------|
|----------------------------------------------------------------|
|----------------------------------------------------------------|


prechorus


|------------------------------------|
|------------------------------------|
|------------------------------------|
|------------------------------------|
|-1---1---2---2---4---4---4---4------|
|---2---2---2---2---4---4---4---4----|


little lick b4 pre chorus
[ Tab from: http://www.guitartabs.cc/tabs/s/shakira/te_dejo_madrid_tab_ver_2.html ]
|--------------------------|
|-6-7--9-11-12-12-12-12----|
|-6-8-10-11-13-13-13-13----|
|--------------------------|
|--------------------------|
|--------------------------|

chorus
|------------------------------------------------2-------------------|
|-2-2-4-2-----------------------2-2-2-2----2---2-2-2-4-4-4-2---------|
|-3-3-4-3-4-4--4-4-3-3--3-3-4-3-3-3-4-3-3--3h4-------4-4-4-4-3-3-3-4-|
|---------4-4--4-4-4-4--4-4-4-4---4-4-4-4--------------------4-4-4-4-|
|--------------------------------------------------------------------|
|--------------------------------------------------------------------|

|--------|
|---2----|
|-3-3----|
|-4------|
|--------|
|--------|

before harmonica solo
|-------------------------------------------------------|
|-------------------------------------------------------|
|-------------------------------------------------------|
|-------------------------------------------------------|
|-------------------------------------------------------|
|-2-2-2-2-0-----2-2-2-2-0----2-2-2-2-0-0-0-0-7-7-7-2----|


guitar during harmonica solo

|----------------------|
|-11-11--9-11--9-12----|
|-11-11-11-11-11-11----|
|-----------------9----|
|----------------------|
|----------------------|

thats it email me
Comments