Shakira - Te Dejo Madrid Chords & Tabs

 

Te Dejo Madrid Chords & Tabs

Shakira Chords & Tabs

Version: 1 Type: Tab 1 rating
1 star 2 stars 3 stars 4 stars 5 stars
comments

Te Dejo Madrid Tab

Te dejo Madrid - Shakira

Por el momento solo les tengo el intro que va asi:

1---------------------------------------
2---------------------------------------
3---------------------------------------
4---------------------------------------
5---------------------------------------
6-7-7-7-7-5-5-5-5-7/9-9-9-9-7-7---------

Eso se repite varias veces

y hay una parte en donde solamente se hace esto:
[ Tab from: http://www.guitartabs.cc/tabs/s/shakira/te_dejo_madrid_tab.html ]
1---------------------------------------
2---------------------------------------
3---------------------------------------
4---------------------------------------
5---------------------------------------
6-2-2-2-2-0---2-2-2-2-0-----------------

1---------------------------------------
2---------------------------------------
3---------------------------------------
4---------------------------------------
5---------------------------------------
6-2-2-2-2-0-0-0-0-4-4-4-4-2-2-2-2-------

1---------------------------------------
2---------------------------------------
3---------------------------------------
4---------------------------------------
5---------------------------------------
6-2-2-2-2-0-0-0-0-4-4-4-4-2-2-2-2-------
Comments