Shakira - Si Te Vas Chords & Tabs

 

Si Te Vas Chords & Tabs

Shakira Chords & Tabs

Version: 2 Type: Tab 0 ratings
1 star 2 stars 3 stars 4 stars 5 stars
comments

Si Te Vas Tab


  HI! I PLAY ON A SPANISH ROCK BAND AND WAS LISTENING TO THIS SONG WHEN
I FOUND THE WAY TO PLAY IT. I HOPE YOU ENJOY IT


E------0---------0---------0-----3-2-0---------0---------0-----7---|
B--------------------------------------3-----------------------8---|
G----2---2-----2---2-----4---4---------------2---2-----2---2---9---|
D--0-------------------2-------------------0-------------------9---|
A------------0---------------------------------------0---------7---|
E--------------------------------------------------------------7---|

[ Tab from: http://www.guitartabs.cc/tabs/s/shakira/si_te_vas_tab_ver_2.html ]
E--3-3--3-3-3---5-5--5-5-5----10-10-10---5-5---7--7-7-7-7-7-7-7----|\
B--3-3--3-3-3---5-5--5-5-5----10-10-10---5-5---8--8-8-8-8-8-8-8----| \
G--4-4--4-4-4---6-6--6-6-6----11-11-11---6-6---9--9-9-9-9-9-9-9----|  \ 2
D--5-5--5-5-5---7-7--7-7-7----12-12-12---7-7---9--9-9-9-9-9-9-9----|  /TIMES
A--5-5--5-5-5---7-7--7-7-7----12-12-12---7-7---7--7-7-7-7-7-7-7----| /
E--3-3--3-3-3---5-5--5-5-5----10-10-10---5-5---7--7-7-7-7-7-7-7----|/


AT THE END OF THE SECOND TIME ADD THIS:

E--3-3-3-3-3-3-3-3---5-------|
B--3-3-3-3-3-3-3-3---5-------|
G--4-4-4-4-4-4-4-4---6-------|
D--5-5-5-5-5-5-5-5---7-------|
A--5-5-5-5-5-5-5-5---7-------|
E--3-3-3-3-3-3-3-3---5-------|

CHORUS:

SI TE VAS,SI TE VAS-SI TE MARCHAS       MI CIELO SE HARA GRIS   
E--10-10--10-5-5--5-7-7-----------------7-7-7--7-10----------------------|
B--10-10--10-5-5--5-8-8-----------------8-8-8--8-10----------------------|
G--11-11--11-6-6--6-9-9-----------------9-9-9--9-11-AND-START-THE-CHORUS-|
D--12-12--12-7-7--7-9-9-----------------9-9-9--9-12------PART-AGAIN------|
A--12-12--12-7-7--7-7-7-----------------7-7-7--7-12----------------------|
E--10-10--10-5-5--5-7-7-----------------7-7-7--7-10----------------------|
Comments