Shakira - Octavo Dia Chords & Tabs

 

Octavo Dia Chords & Tabs

Shakira Chords & Tabs

Version: 1 Type: Tab 0 ratings
1 star 2 stars 3 stars 4 stars 5 stars
comments

Octavo Dia Tab

   
    


Intro: 
      Bm         F#m        G             A
e) |---------------------------------------------|Este riff además
b) |--3----3-----2----2-----3---3---3-----2------|de ser la introducción,
g) |--4----4-----2----2-----0---0---0-----2------|se lo toca tambien durant 
d) |----4----4-----4----4-----0---0---0-----(2)--|el verso.
a) |---------------------------------------------|  
e) |---------------------------------------------|
 
 


Verse:

Bm        F#m                   G             A
El octavo día, Dios, después de tanto trabajar
Bm       F#m                 G             A
para liberar tensiones luego ya de revisar
Bm          F#m                     G        A
Dijo todo está muy bien, es hora de descansar
Bm                         F#m                G  A
Y se fue a dar un paseo por el espacio sideral



Se repite la estructura del verso y luego toca esto:

D           A                         Bm
Desde ése entonces hay quienes lo han visto
A          G      D        E  A
Sólo en las calles  transitar
D       A                    Bm
Aún esperando va siempre por alguien
             A         G     F     Em*   A#
con quien al menos tranquilo pueda conversar


Chorus:
[ Tab from: http://www.guitartabs.cc/tabs/s/shakira/octavo_dia_tab.html ]
D5       A5         G5           A#5       C5
Mientras tanto éste mundo gira, gira sin poderlo detener
D5       A5         G5           A#5       C5
Y aqui abajo unos cuantos nos manejan como fichas de ajedrez
Em1       G5                     D5         A5
no soy la clase de idiota que se deja convencer
     Em                         A
pero digo la verdad y hasta un ciego lo puede ver


Se repite el Verso 1 vez

Se repite coro 2 veces


Se finaliza tocando esto:

e) |---10-----9--------------------9------------|se repite
b) |-12---12----10--10-10--12--12----10----10---|
g) |--------------11-------12-----------11------| 
d) |--------------------------------------------|
a) |--------------------------------------------|  
e) |--------------------------------------------|

Acordes usados:

     Bm   F#m  G   A   D   E   F  Em*  A#  D5   A5  G5   A#5  C5  Em1  Em
e) |--2----2---3---0---2---0---1---3---1---x----x----x----x---x----7---0-|
b) |--3----2---3---2---3---0---1---3---3---x----x----x----x---x----8---0-|  
g) |--4----2---0---2---2---1---2---0---3---7----x----x----x---x----9---0-|
d) |--4----4---0---2---0---2---3---2---3---7----7----5----8--10----9---2-|
a) |--2----4---2---0---0---2---3---2---1---5----7----5----8--10----7---2-|  
e) |--2----2---3---0---x---0---1---0---1---x----5----3----6---8----x---0-|

Sugerencias o comentarios E-mail a: regina_bpg@hotmail.com
 
Este tab a sido tomado de www.atame.org 
transcriptor: rferrin@yupimail.com 
siendo corregido el punteo
Comments