Shakira - Objection Tango Chords & Tabs

 

Objection Tango Chords & Tabs

Shakira Chords & Tabs

Version: 1 Type: Tab 1 rating
1 star 2 stars 3 stars 4 stars 5 stars
comments

Objection Tango Tab

   
Shakira - Objection
Arranged By: Brett Hodgkinson

Hi..this is my first piece i've ever done. So please e-mail me at bretters_h@hotmail.com 
to comment on if this piece is really bad or fairly decent. I don't know the ages of people 
who use this guitar tab site, but I'm only 16 and have been playing for 2 years. Thanks.

0:18
e---2---7---2---|----------------|----------------|------------------------|
B---4---7---4---|----------------|----------------|------------------------|
G---4---4---4---|----------------|-----------4--2-|-------------------4--2-|
D---4---4---4---|--4--2--0-------|-----------4--2-|-------------------4--2-|
A---------------|-----------4--2-|-0-2-0-2-0-2--0-|-2-0-2-2-0-0-0-5-4-2--0-|
E---------------|----------------|----------------|------------------------|                           
                             
e-------------------|-5-3-7----5-3-2-|-7-5-3--2-------|-7-5-3--2-----|
B-------------------|-5-3-7----5-3-2-|-7-5-3--2-7---5-|-7-5-3--2-5-7-|
G-------------------|-6-4-8----6-4-3-|-8-6-4--3-------|-8-6-4--3-----|
D-------------------|----------------|----------------|--------------|
A-2-0-2-2-0-0-0-5-4-|----------------|----------------|--------------|
E-------------------|----------------|----------------|--------------|
							1:10 
e-7-5-3--2-------|-7-5-3--2-----5-------|---------------|
B-7-5-3--2-7---5-|-7-5-3--2-7-5---7-5---|---------------|
G-8-6-4--3-------|-8-6-4--3-------------|-4-4-4-4-4-4-4-|
D----------------|----------------------|-4-4-4-4-4-4-4-|
A----------------|----------------------|-2-2-2-2-2-2-2-|
E----------------|----------------------|---------------|

e---2---7---2---|----------------|----------------|------------------------|
B---4---7---4---|----------------|----------------|------------------------|
G---4---4---4---|----------------|-----------4--2-|-------------------4--2-|
D---4---4---4---|--4--2--0-------|-----------4--2-|-------------------4--2-|
A---------------|-----------4--2-|-0-2-0-2-0-2--0-|-2-0-2-2-0-0-0-5-4-2--0-|
E---------------|----------------|----------------|------------------------|
                             
e-------------------|-5-3-7----5-3-2-|-7-5-3--2--------------|-7-5-3--2--------|
B-------------------|-5-3-7----5-3-2-|-7-5-3--2-7-5-7--7-5-7-|-7-5-3--2-5-7--7-|
G-------------------|-6-4-8----6-4-3-|-8-6-4--3--------------|-8-6-4--3--------|
D-------------------|----------------|-----------------------|-----------------|
A-2-0-2-2-0-0-0-5-4-|----------------|-----------------------|-----------------|
E-------------------|----------------|-----------------------|-----------------|

e-7-5-3--2---------|-7-5-3--2---------|------------------|------------|-----------|
B-7-5-3--2-7-5-7-5-|-7-5-3--2-7-5-4-5-|------------------|------------|-----------|
G-8-6-4--3---------|-8-6-4--3---------|-9------4---------|------------|-----------|
D------------------|------------------|-9------4---------|------------|--2--0-----|
A------------------|------------------|-7------2-2-4-5---|-2---2--4-5-|--2--0--4--|
E------------------|------------------|----------------0-|------------|--------4--|


(Drum plays here for 4 beats. OPTIONAL)
2:21
e---------|
B---------|
G---------|
D---------|
A-2-2-2-2-|
E-2-2-2-2-|
[ Tab from: http://www.guitartabs.cc/tabs/s/shakira/objection_tango_tab.html ]
SOLO At 2:24
e-------------|----------------|-----------------|---------------------|
B-------------|----------------|-----------------|---------------------|
G-------------|----------------|-----------------|---------------------|
D-------------|-2-2-4-4-5-5-4-2|-----------------|---------------------|
A-2-2-4-4-5-5-|----------------|-5-4-2-2-4-4-5-5-|-4-4-2-0-2-4-5-5-4-4-|
E-------------|----------------|-----------------|---------------------|

e-------------|----------------|-----------------|---------------------|
B-------------|----------------|-----------------|---------------------|
G-------------|----------------|-----------------|---------------------|
D-------------|-2-2-4-4-5-5-4-2|-----------------|---------------------|
A-2-2-4-4-5-5-|----------------|-5-4-2-2-4-4-5-5-|-4-4-2-0-2-4-5-5-4-4-|
E-------------|----------------|-----------------|---------------------|

e-----------------|-----------------|-----------------|----------------|
B-----------------|-----------------|-----------------|----------------|
G-----------------|-----------------|-----------------|----------------|
D-----------------|-----------------|-----------------|-0-2-0-2-0-2-0--|
A-2-2-2-2-2-2-2-2-|-5-5-5-5-5-5-5-5-|-----------------|----------------|
E-----------------|-----------------|-3-3-3-3-3-3-3-3-|----------------|

e-----------------|-----------------|-----------------|-----------------|-----------------|
B-----------------|-----------------|-----------------|-----------------|-----------------|
G-----------------|-----------------|-----------------|-----------------|-----------------|
D-----------------|-----------------|-2-2-2-2-2-2-2-2-|-4-4-4-4-4-4-4-4-|-4-4-4-4-4-4-4-4-|
A-2-2-2-2-2-2-2-2-|-5-5-5-5-5-5-5-5-|-----------------|-----------------|-----------------|
E-----------------|-----------------|-----------------|-----------------|-----------------|

2:47

e-7-5-3--2-------------|-7-5-3--2--------|-7-5-3--2---------|-7-5-3--2---------|
B-7-5-3--2-7-5---7-5---|-7-5-3--2-5-7--7-|-7-5-3--2-7-5-5-7-|-7-5-3--2-7-5-4-5-|
G-8-6-4--3-----7-----7-|-8-6-4--3--------|-8-6-4--3---------|-8-6-4--3---------|
D----------------------|-----------------|------------------|------------------|
A----------------------|-----------------|------------------|------------------|
E----------------------|-----------------|------------------|------------------|

e-7-5-3--2--------------|-7-5-3--2--------------|-7-5-3--2--------------|-7-5-3--2--------------|
B-7-5-3--2-7-5-7--7-5-7-|-7-5-3--2-7-5-7--7-5-7-|-7-5-3--2-7-5-7--7-5-7-|-7-5-3--2-7-5-7--7-5-7-|
G-8-6-4--3--------------|-8-6-4--3--------------|-8-6-4--3--------------|-8-6-4--3--------------|
D-----------------------|-----------------------|-----------------------|-----------------------|
A-----------------------|-----------------------|-----------------------|-----------------------|
E-----------------------|-----------------------|-----------------------|-----------------------|

e-7-5-3--2--------------|-7-5-3--2--------------|-7-5-3--2--------------|-7-|
B-7-5-3--2-7-5-7--7-5-7-|-7-5-3--2-7-5-7--7-5-7-|-7-5-3--2-7-5-7--7-5-7-|-7-|
G-8-6-4--3--------------|-8-6-4--3--------------|-8-6-4--3--------------|-8-|
D-----------------------|-----------------------|-----------------------|---|
A-----------------------|-----------------------|-----------------------|---|
E-----------------------|-----------------------|-----------------------|---|
Comments