Shakira - Objection Chords & Tabs

 

Objection Chords & Tabs

Shakira Chords & Tabs

Version: 1 Type: Tab 0 ratings
1 star 2 stars 3 stars 4 stars 5 stars
comments

Objection Tab

   
#----------------------------------PLEASE NOTE---------------------------------#
#This file is the author's own work and represents their interpretation of the #
#song. You may only use this file for private study, scholarship, or research. #
#------------------------------------------------------------------------------#

Objection (Tango)
Shakira
Capo: G
Tabbed by Shakeeraa.


After the instrumental intro, when the electric guitar kicks in.
e----0-------------1-------------0--------------------------------------------------------
B----3-------------0-------------3--------------------------------------------------------
G----1-------------0-------------1--------------------------------------------------------
D----2-------------0-------------2--------------------------------------------------------
A----2-------------2-------------2------------------7-7-5-5-3-3-2-2-0-0-0-0-0-0-0-0-0-----
E----0-------------3-------------2--------------------------------------------------------

e---------------------------------------------------------0--1--5-----0--1----------0-----
B---------------------------------------------------------0--0--5-----0--1--------0-------
G---------------------------------------------------------1--0--6-----1--2------1---------
D---------------------------------------------------------2--0--7-----2--3----2-----------
A--5---0-0-0-0---------3-2---7--5---0-0-0-0---------3-2------2----------------------------
E--3-----------3-3-3-3-------5--3-----------3-3-3-3----------3----------------------------

Chorus (play three/four times) :
  Objection I don't want to be the acception..........To get a bit of your  attention
e---5---------3-------------1------------------0------0-----------------------3--0--------
B---5---------5-------------0------------------3-----0------------------------------------
G---6---------0-------------0------------------1----1-------------------------------------
D---7---------0-------------0------------------2------------------------------------------
A-------------4-------------2------------------2------------------------------------------
E-------------5-------------3------------------0------------------------------------------

e---5---------3-------------1------------------0------------------------------------------
B---5---------5-------------0------------------3------------------------------------------
G---6---------0-------------0------------------1------------------------------------------
D---7---------0-------------0------------------2------------------------------------------
A-------------4-------------2------------------2------------9-9-9-9-9-9-9-9-9-------------
E-------------5-------------3------------------0------------7-7-7-7-7-7-7-7-7-------------

Little riff. Substitute the accordion for this part.
e--0---------------------------------------0----------------------------------------------
B----3-1-0-------------------1---------------3-1-0-------0-0-0-0--------------------------
G----------------------------------------------------------------2-2-2-2-2----------------
D----------2-3-2-2--2-2-3-2-----2-3-2-2--2---------2-3-2----------------------------------
A-----------------------------------------------------------------------------------------
E-----------------------------------------------------------------------------------------

[ Tab from: http://www.guitartabs.cc/tabs/s/shakira/objection_tab.html ]
I wish there was a chance for you and me......
e-----------------------------------------------------------------------------------------
B-----------------------------------------------------------------------------------------
G-----------------------------------------------------------------------------------------
D-----------------------------------------------------------------------------------------
A-----------------------------------------------------------------------------------------
E----------------------------------------------5--7---8--1-------------------------------

I wish u couldn't find a place to be           away from heeeeeeere!
e-----------------------------------------------------------------------------------------
B-----------------------------------------------------------------------------------------
G-----------------------------------------------------------------------------------------
D-----------------------------------------------------------------------------------------
A-----------------------------------------------------------------------------------------
E-------------------------------------5-7--6---10----8---7--------------------------------

*BOOM* *BOOM* *BOOM* *BOOM*
e-----------------------------------------------------------------------------------------
B-----------------------------------------------------------------------------------------
G-----------------------------------------------------------------------------------------
D--------------0-0-2-2-3-3-2-0------------------------------------------------------------
A--0-0-2-2-3-3-----------------3-2-0-0-2-2-3-3-2-2-----2-2-3-3-2-2------------------------
E--------------------------------------------------1-1------------------------------------

e-----------------------------------------------------------------------------------------
B-----------------------------------------------------------------------------------------
G-----------------------------------------------------------------------------------------
D--------------0-0-2-2-3-3-2-0------------------------------------------------------------
A--0-0-2-2-3-3-----------------3-2-0-0-2-2-3-3-2-2-----2-2-3-3-2-2------------------------
E--------------------------------------------------1-1------------------------------------

GUITAR SOLO!!!
e-----------------------------------------------------------------------------------------
B-----------------------------------------------------------------------------------------
G-----------------------------------------------------------------------------------------
D-----------------------------------------------------------------------------------------
A---0-0-0-0-0-0-0-0--3-3-3-3-3-3-3-3-------------------3h5-3h5-3h5-3h5--------------------
E-------------------------------------1-1-1-1-1-1-1-1-------------------------------------

e-----------------------------------------------------------------------------------------
B-----------------------------------------------------------------------------------------
G-----------------------------------------------------------------------------------------
D-----------------------------------------------------------------------------------------
A---0-0-0-0-0-0-0-0--3-3-3-3-3-3-3-3--5-5-5-5-5-5-5-5--7-7-7-7-7-7-7-7-7-7-7-7-7-7-7-7----
E-----------------------------------------------------------------------------------------

Play the chorus part until end of song.

There's something at the end I'm not tabbing.
That 'something' has a really high end to the song.
Try to play along Shakira's beautiful voice.
For questions and comments please email me at shakeeraa@hotmail.com
Comments