Shakira - Inevitable Unplugged Chords & Tabs

 

Inevitable Unplugged Chords & Tabs

Shakira Chords & Tabs

Version: 1 Type: Tab 1 rating
1 star 2 stars 3 stars 4 stars 5 stars
comments

Inevitable Unplugged Tab

   
+------------------------------------------------------------------------------------------------------------+
|                                               ¡¡¡ ATENCIÓN !!!                                             |
| La primera de las versiones tiene todas las notaciones relativas al capo, que ha de estar en el 4º traste. |
| La segunda versión (abajo) está con las notas REALES y sin capo.                                           |
+------------------------------------------------------------------------------------------------------------+



((( Primera versión con capo )))
==================================

* * * INEVITABLE (UNPLUGGED) * * *

  (Música: Shakira / L.F. Ochoa)
  (Letra: Shakira)

==================================


(Capo en el 4º traste)


Verso 1(relativo al capo)
    (1)D        (2)D/C#     (3)D/B       (4)D/A       (5)G
g#-----------|-----------|-----------|-----------|-----------|
D#------3----|------3----|------3----|------3----|-----3-----|
B ----2---2--|----2---2--|----2---2--|----2---2--|-----0-----|
F#--0--------|-----------|-----------|-----------|-----0-----|
C#-----------|--4--------|--2--------|--0--------|-----2-----|
G#-----------|-----------|-----------|-----------|-----3-----|

Bridg

	*** En la versión normal de estudio :
	g#-----------------------------------------|
	D#-----------------------------------------|
	B -----------------------------------------|
	F#--0h2---0h2--0h2---0h2--2--2---2-2--2p0--|
	C#-----------------------------------------|
	G#--0-----0----0-----0----0--0---0-0--0----|

	*** En la versión del Unplugged :

	D - G - D - A (x3)
	D - G - A


Verso 


Fin: (nota a nota o el acorde rasgueado)
(relativo al capo)
      D           D/C#        D/B         D/A          G
g#-----------|-----------|-----------|-----------|----(3)----|
D#------3----|------3----|------3----|------3----|-----3-----|
B ----2---2--|----2---2--|----2---2--|----2---2--|-----0-----|
F#--0--------|-----------|-----------|-----------|-----0-----|
C#-----------|--4--------|--2--------|--0--------|-----2-----|
G#-----------|-----------|-----------|-----------|-----3-----|



[ Tab from: http://www.guitartabs.cc/tabs/s/shakira/inevitable_unplugged_tab.html ]
##################################################################################################
##################################################################################################
##################################################################################################
##################################################################################################



(((Segunda versión sin capo)))
==================================

* * * INEVITABLE (UNPLUGGED) * * *

  (Música: Shakira / L.F. Ochoa)
  (Letra: Shakira)

==================================


Verso 

  (1)F#       (2)F#/F     (3)F#/D#    (4)F#/C#      (5)B
e-----------|-----------|-----------|-----------|-----2-----|
B------7----|------7----|------7----|------7----|-----4-----|
G----6---6--|----6---6--|----6---6--|----6---6--|-----4-----|
D--4--------|--3--------|-----------|-----------|-----4-----|
A-----------|-----------|--6--------|--4--------|-----2-----|
E-----------|-----------|-----------|-----------|----(2)----|

Bridg
Durante el solo de órgano:

	*** En la versión normal de estudio :
	e-----------------------------------------|
	B-----------------------------------------|
	G-----------------------------------------|
	D--4h6---4h6--4h6---4h6--6--6---6-6--6p4--|
	A-----------------------------------------|
	E--4-----4----4-----4----4--4---4-4--4----|
 
	*** En la versión del Unplugged :

	F# - B - F# - C# (x3)
	F# - B - C#


Verso 
Fin: (nota a nota o el acorde rasgueado)
     F#          F#/F        F#/D#       F#/C#        B
e-----------|-----------|-----------|-----------|-----2-----|
B------7----|------7----|------7----|------7----|-----4-----|
G----6---6--|----6---6--|----6---6--|----6---6--|-----4-----|
D--4--------|--3--------|-----------|-----------|-----4-----|
A-----------|-----------|--6--------|--4--------|-----2-----|
E-----------|-----------|-----------|-----------|----(2)----|




Por Carlos Delgado
guitarman@terra.es

Escribidme para cualquier correción o duda.



+----------------------------------------------------------------------------+
|                                                                            |
|  William Miller: A ver Russell, ¿qué es lo que más te gusta de la música?  |
|  Russell Hammond: Para empezar... todo.                                    |
|                                                                            |
|                                    Extracto de la película 'Casi Famosos'  |
|                                                                            |
+----------------------------------------------------------------------------+
Comments