Shakira - Ciega Sordomuda Chords & Tabs

 

Ciega Sordomuda Chords & Tabs

Shakira Chords & Tabs

Version: 1 Type: Tab 0 ratings
1 star 2 stars 3 stars 4 stars 5 stars
comments

Ciega Sordomuda Tab

Artist: Shakira
Song: Ciega Sordomuda
Album: Donde Estan Los Ladrones
Tabbed By: Chris Suiter (242chris@citlink.net)


Hey this is my interpretation of Shakira's song Ciega Sordumuda Starts like this
e---4--4--4---2--2--2---1--1--1----------------------------------------------------------------
B---6--6--6---4--4--4---2--2--2--4-------------------------------------------------------------
G--------------------------------5-------------------------------------------------------------
D----------------------------------------------------------------------------------------------
A----------------------------------------------------------------------------------------------
E----------------------------------------------------------------------------------------------


these Are the power chords played here i think 5 times
e----------------------------------------------------------------------------------------------
B----------------------------------------------------------------------------------------------
G--6-6-6-6-6-6-6-6-6-6-6-6-6-6-----------------------------------------------------------------
D--6-6-6-6-6-6-6-6-6-6-6-6-6-6--6-6-6-6-6-6-6-6-6-6-6-6-6-6------------------------------------
A--4-4-4-4-4-4-4-4-4-4-4-4-4-4--6-6-6-6-6-6-6-6-6-6-6-6-6-6------------------------------------
E-------------------------------4-4-4-4-4-4-4-4-4-4-4-4-4-4------------------------------------


these are the little leads that you here in the background over the chords u play the first 
one then the second then the first one again.
e--4--4--4---2---1--4-------4--4--4---2--1--1--------------------------------------------------
B--6--6--6---4---2--6-------6--6--6---4--2--2--------------------------------------------------
G----------------------------------------------------------------------------------------------
D----------------------------------------------------------------------------------------------
A----------------------------------------------------------------------------------------------
E----------------------------------------------------------------------------------------------


then these chords come up with a wah or volume pedal
e----------------------------------------------------------------------------------------------
B----------------------------------------------------------------------------------------------
G--6---8-----------6---8-----------------------------------------------------------------------
D--6---8---6-------6---8--6--6--6--6--6--6--6--6-----------------------------------------------
A--4---6---6-------4---6--6--6--6--6--6--6--6--6-----------------------------------------------
E----------4--------------4--4--4--4--4--4--4--4-----------------------------------------------


then there is the chorus u end on that last chord
e----------------------------------------------------------------------------------------------
B----------------------------------------------------------------------------------------------
G--6-6-6-6-6-6-6-6-6-6-6-6-6-6-----------------------------------6-----------------------------
D--6-6-6-6-6-6-6-6-6-6-6-6-6-6--6-6-6-6-6-6-6-6-6-6-6-6-6-6------6-----------------------------
A--4-4-4-4-4-4-4-4-4-4-4-4-4-4--6-6-6-6-6-6-6-6-6-6-6-6-6-6-x4---4-----------------------------
E-------------------------------4-4-4-4-4-4-4-4-4-4-4-4-4-4------------------------------------

here is the lead fill for the chorus
e---4---4---4---2---2---2---1--1--1------------------------------------------------------------
B---6---6---6---4---4---4---2--2--2---4--------------------------------------------------------
G-------------------------------------5--------------------------------------------------------
D----------------------------------------------------------------------------------------------
A----------------------------------------------------------------------------------------------
E----------------------------------------------------------------------------------------------

[ Tab from: http://www.guitartabs.cc/tabs/s/shakira/ciega_sordomuda_tab.html ]
here is the verse played 5 times i think
e----------------------------------------------------------------------------------------------
B----------------------------------------------------------------------------------------------
G--6-6-6-6-6-6-6-6-6-6-6-6-6-6-----------------------------------------------------------------
D--6-6-6-6-6-6-6-6-6-6-6-6-6-6--6-6-6-6-6-6-6-6-6-6-6-6-6-6------------------------------------
A--4-4-4-4-4-4-4-4-4-4-4-4-4-4--6-6-6-6-6-6-6-6-6-6-6-6-6-6------------------------------------
E-------------------------------4-4-4-4-4-4-4-4-4-4-4-4-4-4------------------------------------


these are the little leads that you here in the background over the chords u play the first 
one then the second then the first one again.
e--4--4--4---2---1--4-------4--4--4---2--1--1--------------------------------------------------
B--6--6--6---4---2--6-------6--6--6---4--2--2--------------------------------------------------
G----------------------------------------------------------------------------------------------
D----------------------------------------------------------------------------------------------
A----------------------------------------------------------------------------------------------
E----------------------------------------------------------------------------------------------


then these chords come up with a wah or volume pedal
e----------------------------------------------------------------------------------------------
B----------------------------------------------------------------------------------------------
G--6---8-----------6---8-----------------------------------------------------------------------
D--6---8---6-------6---8--6--6--6--6--6--6--6--6-----------------------------------------------
A--4---6---6-------4---6--6--6--6--6--6--6--6--6-----------------------------------------------
E----------4--------------4--4--4--4--4--4--4--4-----------------------------------------------


then there is the chorus u end on that last chord
e----------------------------------------------------------------------------------------------
B----------------------------------------------------------------------------------------------
G--6-6-6-6-6-6-6-6-6-6-6-6-6-6-----------------------------------6-----------------------------
D--6-6-6-6-6-6-6-6-6-6-6-6-6-6--6-6-6-6-6-6-6-6-6-6-6-6-6-6------6-----------------------------
A--4-4-4-4-4-4-4-4-4-4-4-4-4-4--6-6-6-6-6-6-6-6-6-6-6-6-6-6-x4---4-----------------------------
E-------------------------------4-4-4-4-4-4-4-4-4-4-4-4-4-4------------------------------------

here is the lead fill for the chorus
e---4---4---4---2---2---2---1--1--1------------------------------------------------------------
B---6---6---6---4---4---4---2--2--2---4--------------------------------------------------------
G-------------------------------------5--------------------------------------------------------
D----------------------------------------------------------------------------------------------
A----------------------------------------------------------------------------------------------
E----------------------------------------------------------------------------------------------


then there is the part where she sings fast
e----------------------------------------------------------------------------------------------
B----------------------------------------------------------------------------------------------
G-----------------------6-6---6-6---6-6--------------------------------------------------------
D--4-4---4-4---4-4------6-6---6-6---6-6---x2---------------------------------------------------
A--4-4---4-4---4-4------4-4---4-4---4-4--------------------------------------------------------
E--2-2---2-2---2-2-----------------------------------------------------------------------------


and this is the solo played on guitar
e-----------------------------------------9----------------------------------------------------
B--9---9--7--6--9---7--6--------6--7---9-------------------------------------------------------
G------------------------6-6-------------------------------------------------------------------
D----------------------------------------------------------------------------------------------
A----------------------------------------------------------------------------------------------
E----------------------------------------------------------------------------------------------

then the chorus again
then there is the chorus u end on that last chord u play it 7 times but it just gets softer 
each time and starts to fade out.
e----------------------------------------------------------------------------------------------
B----------------------------------------------------------------------------------------------
G--6-6-6-6-6-6-6-6-6-6-6-6-6-6-----------------------------------------------------------------
D--6-6-6-6-6-6-6-6-6-6-6-6-6-6--6-6-6-6-6-6-6-6-6-6-6-6-6-6------------------------------------
A--4-4-4-4-4-4-4-4-4-4-4-4-4-4--6-6-6-6-6-6-6-6-6-6-6-6-6-6-x7---------------------------------
E-------------------------------4-4-4-4-4-4-4-4-4-4-4-4-4-4------------------------------------

Questions Comments or Suggestions to: 242chris@citlink.net
Comments