Shaggy - Angel Chords & Tabs

 

Angel Chords & Tabs

Shaggy Chords & Tabs

Version: 2 Type: Bass Tab 0 ratings
1 star 2 stars 3 stars 4 stars 5 stars
comments

Angel Bass Tab

Song: Angel 
Artist: Shaggy 
Tabbed by: Russ Richey (cbr600f4r@aol.com) 
Member of the Bass Tab Army 
http://www.basstabarchive.com/ 



Very simple song.   Mostly repetitive. 
[ Tab from: http://www.guitartabs.cc/tabs/s/shaggy/angel_btab_ver_2.html ]
INTRO 
G|-----------------------------------------------------| 
D|-----------------------------------------------------| 
A|-----------3-3----3-h7p-5-5--5-3333h5-5--------------| 
E|--3-3--3h5-------------------------------------------| 
B|-----------------------------------------------------| 


Verse 

G|-----------------------------------------------------| 
D|-----------------------------------------------------| 
A|------------3-3--3----6h7-5--5---5-3333h5-5----------| 
E|--3-3--3---------------------------------------------| 
B|-----------------------------------------------------| 

Comments