Shadowy Men On A Shadowy Planet - Spy School Gradutation Theme Chords & Tabs

 

Spy School Gradutation Theme Chords & Tabs

Shadowy Men On A Shadowy Planet Chords & Tabs

Version: 1 Type: Tab 0 ratings
1 star 2 stars 3 stars 4 stars 5 stars
comments

Spy School Gradutation Theme Tab

Shadowy Men on a Shadowy Planet - Spy School Graduation Theme
Tabbed by springwaffle
[ Tab from: http://www.guitartabs.cc/tabs/s/shadowy_men_on_a_shadowy_planet/spy_school_gradutation_theme_tab.html ]
e-0~~~~0~~~~0------------------------------------------------------------------
b-1~~~~1~~~~1------------------------------------------------------------------
g-2~~~~2~~~~2------------------------2--------------------------2--------------
d-2~~~~2~~~~2------2b~~~~--------0-2---2~~----2b~~~~--------0-2---2--2-2-3-2-0-
a-0~~~~0~~~~0--0-3-----------0-3----------0-3-----------0-3--------------------
e------------------------\0-------------------------\0-------------------------
    \/   \/              ___________________  __________________
                        | 1                  | 2
e|--2~~2~~~------------|-0~~~~0~~~-0~~0~~~~-|-----------------0-
b|*-3~~3~~~------------|-1~~~~1~~~x1~~1~~~~*|-----------------0-
g|--2~~2~~~------------|-2~~~~2~~~x2~~2~~~~-|-----------------1-
d|--0~~0~~~0-0-0-------|-2~~~~2~~~x2~~2~~~~-|-----------------2-
a|*--------------3-2p0-|-0~~~~0~~~x0~~0~~~~*|-----------------2-
e|---------------------|--------------------|-0-0-0-0-0-0-0-0-0-
        \/                     \ /  \/ \/     pm.............

I'm not for sure this is 100% correct but it's close enough.
This is all the parts, some little fills and stuff I didn't tab
but I'm sure you can figure it out.

\/\/\/\ = use whammy bar
~~~~~ = let ring, also use whammy if you want
Comments