Shadowy Men On A Shadowy Planet - Shake Some Evil Chords & Tabs

 

Shake Some Evil Chords & Tabs

Shadowy Men On A Shadowy Planet Chords & Tabs

Version: 1 Type: Tab 1 rating
1 star 2 stars 3 stars 4 stars 5 stars
comments

Shake Some Evil Tab

Shake Some Evil - Shadowy Men on a Shadowy Planet
Tabbed by springwaffle

e-0-------0-------0----
b-1-------1-------1----
g-2-------2-------2----
d-2-------2-------2----
a-0-------0-------0----
e----------------------
    \/     \/      \/

e-----0-------5\--------0-----------------0----------8\--------0-----------------
b---1---4b----5\------1---4b----5\------1---4b5r4----8\------1---4b5r4b5r4----5\-
g-2-----------------2-----------5\----2--------------------2------------------5\-
d--------------------------------------------------------------------------------
a--------------------------------------------------------------------------------
e--------------------------------------------------------------------------------

e-----|-------------------------------------------------------------|
b-----|*-----------------------------------------------------------*|
g-----|-------------------------------------------------------------|
d-----|-------------------------------------------------------------|
a-----|*---0--0---2-3--2--0---0---------0--0---2-3--2--0---0-------*|
e-12\-|--0------------------3----0----0------------------3----------|
                                  \ /                         \/ \/

e-----0-------5\--------0--------------------0--------------8\-
b---1---4b----5\------1---4b5r4----5\------1---4b5r4b5r4----8\-
g-2-----------------2--------------5\----2---------------------
d--------------------------------------------------------------
a--------------------------------------------------------------
e--------------------------------------------------------------
[ Tab from: http://www.guitartabs.cc/tabs/s/shadowy_men_on_a_shadowy_planet/shake_some_evil_tab.html ]
e---------------------------------------------------
b---------------------------------------------------
g---------------------------------------------------
d---------------------------------------------------
a----------------3--2---0---0--0--2--2--3--3--4b----
e-12\-0--0-0--0-----------3-------------------------
                               * ***                      **
e|---------------------------------------------------------------|
b|*-------------------------------------------------------------*|
g|---------------------------------------------------------------|
d|---------------------------------------------------------------|
a|*-----0--0---2-3--2--0---0---------0--0---2-3--2--0---0-------*|
e|--(0)------------------3----0----0------------------3----------|
                               \ /                         \/ \/

  *                  **                               ***
e-5-----5----------|-5b-5b-5b-5b-5b-5b--------------|-5----
b-5p4---5----------|-5b-5b-5b-5b-5b-5b--------------|-5--4-
g---------7-5------|-------------------7-5----------|------
d-------------7--7-|-----------------------7p5h7--7-|------
a------------------|--------------------------------|------
e------------------|--------------------------------|------

e-----0-------5\--------0--------------------0--------------8\-
b---1---4b----5\------1---4b5r4----5\------1---4b5r4b5r4----8\-
g-2-----------------2--------------5\----2---------------------
d--------------------------------------------------------------
a--------------------------------------------------------------
e--------------------------------------------------------------

e---------------------------------0----
b--------------------------------1-----
g-------------------------------2------
d------------------------------2-------
a----------------3--2---X\----0--------
e-12\-0--0-0--0---------X\-------------
                                   \ /   

* Those fills are played on a second guitar.

\/ underneath = use whammy bar, \ for down / for up
4b5r4 = bend 4 to 5 and release back at 4
(0) = ghost note, not played the first time
X\ = slow pick slide, from the bridge to the nut

Corrections/comments/etc. can be sent to: springwaffle@comcast.net
Comments