Shadowy Men On A Shadowy Planet - Having An Average Day Chords & Tabs

 

Having An Average Day Chords & Tabs

Shadowy Men On A Shadowy Planet Chords & Tabs

Version: 1 Type: Tab 0 ratings
1 star 2 stars 3 stars 4 stars 5 stars
comments

Having An Average Day Tab

   
Song: Having An Average Day                         /
Band:  Shadowing Men on a Shadowy Man    /_________________________________                                  
Tabbed by:  Andrew Jordan, Any Questions email me @: Bam_Pontius@hotmail.com  /
______________________________________________________________________/



Intro

e--------------------------
b------------0-3-0---0-----
g-0---0------------2-------    Repeat Several Times
d---0---0-2-------------2--
b--------------------------
E--------------------------


Riff 1
[ Tab from: http://www.guitartabs.cc/tabs/s/shadowy_men_on_a_shadowy_planet/having_an_average_day_tab.html ]
G           G
e-3----------3
b-3----------3
g-0--2-4-2-0-0     4 Times
d-0----------0
a-2----------2
E-3----------3


Riff 2

D           Em
e-2----------0-----------
b-3----------0-----------
g-2----------0-----------   3 Times
d-0---0------2-----------
a---2---2-0--2-----------
E------------0-2-3-5-----

Riff 3

e--------------------------------------
b--------------------------------------
g--------------------------------------    4 times, but on the 4th time
d--------------------------------------    do this:
a--2-3-2-3-2-3-2-----2-3-2-3-2-3-2-----     
E----------------3-----------------3---    
     

D -----------------2-2-2-2------------
A --2-3-2-3---------------0-----------
E ------------------------------------
Comments