Shadowy Men On A Shadowy Planet - Good Cop Bad Cop Chords & Tabs

 

Good Cop Bad Cop Chords & Tabs

Shadowy Men On A Shadowy Planet Chords & Tabs

Version: 1 Type: Tab 0 ratings
1 star 2 stars 3 stars 4 stars 5 stars
comments

Good Cop Bad Cop Tab

"Good Cop, Bad Cop"
(Brian Connelly/Reid Diamond/Don Pyle)
From the album Savvy Show Stoppers
Tabbed by Travis Bursik (mary.madura@azwest.net) 

Intro  (x4)
E| ------ |
B|.------.| * bend note down full step
G| ------ |   with vibrato.  Gradually
D| ------ |   release.
A|.------.|
E| -0*--- |

Riff 1                 (x3)
E| ---------------------- |---------------------| 
B|.----------------------.|---------------------|
G| ---------------------- |---------------------|
D| -----2~-2-2-0-2-0----- |-----2---2-2-0-2-0---|
A|.---2--------------2-0-.|---2---2-----------2-|
E| -0-------------------- |-0-------------------|
[ Tab from: http://www.guitartabs.cc/tabs/s/shadowy_men_on_a_shadowy_planet/good_cop_bad_cop_tab.html ]
Riff 2
E|-----------------------------------------0~---0~-|
B|-----------------------------------------0~---0~-|
G|-----0~~-------------0~~-9(vibrato pick)-0~---0~-|
D|---2---------0-----2---------------------2~---2~-|
A|-3-------3-3---3-2-----------------------2~---2~-|
E|-----------------------------------------0~---0~-|

Repeat Riff 1
Repeat Riff 2
                                 (x3)
E|-0~---0~---| -------------------- |---------------|
B|-0~---0~---|.--------------------.|---------------|
G|-0~---0~---| -------------------- |-------0-------|
D|-2~---2~---| -----2~-2-0-2-0----- |-2-2-2---2-0---|
A|-2~---2~---|.---2------------2-0-.|-------------2-|
E|-0~---0~---| -0------------------ |---------------|
                                                             (x2)
E| -------------------------------------------------------------|
B| -------------------------------------------------------------|
G| ---2-2-0-0------2-2-0-0------2-2-0-0-2-0-2^(3) 2^(3)-2-0-----|
D| -----------2------------2--------------------------------2-0-|
A| -------------------------------------------------------------|
E| 0*-----------0*-----------0*---------------------------------|
				       * Let note ring throughout

Repeat Riff 2
Repeat Intro with full chords

Comments