Shadowy Men From A Shadowy Planet - The Kids In The Hall Theme Chords & Tabs

 

The Kids In The Hall Theme Chords & Tabs

Shadowy Men From A Shadowy Planet Chords & Tabs

Version: 2 Type: Bass Tab 0 ratings
1 star 2 stars 3 stars 4 stars 5 stars
comments

The Kids In The Hall Theme Bass Tab

Song: Theme to "The Kids In The Hall"
Artist: Shadowy Men From A Shadowy Planet
Tabbed By: Jeremy Ruppel (skipworm@hotmail.com)
[ Tab from: http://www.guitartabs.cc/tabs/s/shadowy_men_from_a_shadowy_planet/the_kids_in_the_hall_theme_btab_ver_2.html ]
Okay it really seems like no one knows who actually plays
this song, so here they are: Shadowy Men From A Shadowy Planet.
Its a pretty easy song, with a great bass part, so enjoy!

Intro
G|----------------|
D|5---5-----------|
A|---5---57--57757|
E|----------------|

Next Part
G|----------------|
D|5--555-5--------|
A|--5---5-7-577757|
E|----------------|

Next Part
G|----7-----------|
D|---9-9752-4-5-4-|
A|5---------------|
E|----------------|
Comments