Shadowy Men From A Shadowy Planet - Kids In The Hall Theme Chords & Tabs

 

Kids In The Hall Theme Chords & Tabs

Shadowy Men From A Shadowy Planet Chords & Tabs

Version: 2 Type: Tab 0 ratings
1 star 2 stars 3 stars 4 stars 5 stars
comments

Kids In The Hall Theme Tab

Kids in the Hall TV show theme
by Shadow Men on a Shadow Planet
tabbed by Justin Daering
www.naturalfilms.com

-----------------------------------------------------------------
-----------------------------------------------------------------
0---0---------0---0----------------------------------------------
---0---02-2-0----0---02-2-0--------------------------------------
-----------------------------------------------------------------
-----------------------------------------------------------------

----------------------------------------------0------------------
-----------------------------------------------3-0---------------
0-42-0-------0-42-0-----0--0-42-0-------0-42-0-----20------------
------2-02---------2-02--2-------2-02----------------------------
-----------------------------------------------------------------
-----------------------------------------------------------------
[ Tab from: http://www.guitartabs.cc/tabs/s/shadowy_men_from_a_shadowy_planet/kids_in_the_hall_theme_tab_ver_2.html ]
-0---------------0----------------0---------------0--------------
3-30------------3-30-------------3-30------------3-30------------
-----------------------------------------------------------------
-----2-4-5-4-0-------2-4-55-4-0-------2-4-5-4-0-------2-2--------
---------------------------------------------------------2-2-----
-----------------------------------------------------------------

------------------------------------------------------0000-------
----------------------------------------------------------30-----
4-5-4-5-4540--04-5-4-5-4540--04-5-4-5-4540--04-5-4-54-------20---
-----------------------------------------------------------------
-----------------------------------------------------------------
-----------------------------------------------------------------

I am 98% sure this is right. On the third line I put some of the bass stuff
on guitar so it would fill in the blanks where the bass solos are. Any comments email me at:

jdaering@naturalfilms.com
Comments