Shadowy Men From A Shadowy Planet - Kids In The Hall Theme Chords & Tabs

 

Kids In The Hall Theme Chords & Tabs

Shadowy Men From A Shadowy Planet Chords & Tabs

Version: 1 Type: Tab 0 ratings
1 star 2 stars 3 stars 4 stars 5 stars
comments

Kids In The Hall Theme Tab

   
Artist: Shadowy Men From a Shadowy Planet
Song: Kids In The Hall Theme
Tabbed By: Jay Dracul

 I dedicate this my first tab to Cierra French B/C I love Her!!
So here it is the Intro Riff to "The Kids I The Hall Theme"
Standard Tuning:E, B, G, D, A, E

Intro Riff:
[ Tab from: http://www.guitartabs.cc/tabs/s/shadowy_men_from_a_shadowy_planet/kids_in_the_hall_theme_tab.html ]
|-----------------------|----------------------|
|-----------------------|----------------------|
|---5-0-5-0-5------7757-|-5---555-5------------|
|-------------5-5-------|---5----5-7-577757----|
|-----------------------|----------------------|
|-----------------------|----------------------|

|-----------------------|
|----7------------------|
|---9-9-752-4-5-4-------|
|5----------------------|
|-----------------------|
|-----------------------|

 Thats all Enjoy!! and Cierra if u see this I do love u xoxoxo!!
Comments