Shadowy Men From A Shadowy Planet - Having An Average Weekend Chords & Tabs

 

Having An Average Weekend Chords & Tabs

Shadowy Men From A Shadowy Planet Chords & Tabs

Version: 1 Type: Tab 0 ratings
1 star 2 stars 3 stars 4 stars 5 stars
comments

Having An Average Weekend Tab

Band: Shadowy Men from a Shadowy Planet
Song: Having an Average Weekend (Theme to Kids in the Hall)
Tabbed by: Say It Aint So

Standard Tuning

(Intro) 
E|------------------------------------------------|
B|------------------------------------------------|
G|--0---0------------4-7-4---4--------------------|
D|----0---0-2--------------7----5-----------------|
A|------------------------------------------------|
E|------------------------------------------------|

Repeat 2 times, on the 3rd time play this


E|------------------------------------------------|
B|-------------------------0----------------------|
G|--0---0------------0 2h3------------------------|
D|----0---0-2-------------------------------------|
A|------------------------------------------------|
E|------------------------------------------------|
[ Tab from: http://www.guitartabs.cc/tabs/s/shadowy_men_from_a_shadowy_planet/having_an_average_weekend_tab.html ]
E|-3----------------------------------------------|
B|-0---0--------------------0---------------------|
G|-0-----2-0------------------2-0-----------------|
D|-0------------------------------------5---------|
A|-2---------7-5-7----------------7-5-7----7p5----|
E|-3----------------------------------------------|

E|--3----------------3----------------------------|
B|--0---3p0----------0----------------------------|
G|--0-------2h4------0----------------------------|
D|--0------------2---0----------------------------|
A|--2----------------2----------------------------|
E|--3----------------3----------------------------|


E|------------------------------------------------|
B|------------------------------------------------|
G|------------------------------------------------|
D|------------------------------------------------|
A|--2-2-3-3--2-2-3-3--2-3-2-----------------------|
E|--------------------------3---------------------|

Repeat 3 times, on the 4th time

E|---------------------------------------3---------|
B|---------------------------------------0---------|
G|---------------------------------------0---------|
D|--------------------2-2-2-2p0----------0---------|
A|--2-2-3-3--2-2-3-3-------------2p0-----2---------|
E|---------------------------------------3---------|
Comments