Shadowy Men From A Shadowy Planet - Having An Average Weekend Kids In The Hall Theme Chords & Tabs

 

Having An Average Weekend Kids In The Hall Theme Chords & Tabs

Shadowy Men From A Shadowy Planet Chords & Tabs

Version: 1 Type: Tab 0 ratings
1 star 2 stars 3 stars 4 stars 5 stars
comments

Having An Average Weekend Kids In The Hall Theme Tab

   
I've played this a couple of times and it sounds right

intro

--------------------------
------------0-3-0---0-----
-0---0------------2-------    Repeat Several Times
---0---0-2-------------2--
--------------------------
--------------------------


Riff 1

G           G
-3----------3
-3----------3
-0--2-4-2-0-0     4 Times
-0----------0
-2----------2
-3----------3


Riff 2

D           Em
-2----------0-----------
-3----------0-----------
-2----------0-----------   3 Times
-0---0------2-----------
---2---2-0--2-----------
------------0-2-3-5-----

Riff 3
[ Tab from: http://www.guitartabs.cc/tabs/s/shadowy_men_from_a_shadowy_planet/having_an_average_weekend_kids_in_the_hall_theme_tab.html ]
--------------------------------------
--------------------------------------
--------------------------------------    4 times, but on the 4th time
--------------------------------------    do this:
--2-3-2-3-2-3-2-----2-3-2-3-2-3-2-----     
----------------3-----------------3---    
     
                                           D -----------------2-2-2-2-0-------
                                           A --2-3-2-3-----------------2-0----
                                           E --------------------------------
                                            
                                                   End on G
Comments