Shadows Fall - Thoughts Without Words Chords & Tabs

 

Thoughts Without Words Chords & Tabs

Shadows Fall Chords & Tabs

Version: 2 Type: Tab 0 ratings
1 star 2 stars 3 stars 4 stars 5 stars
comments

Thoughts Without Words Tab

Shadows Fall
Thoughts Without Words 
Intro and Verse

Harder than it looks. Use LOTS of distortion.

Drop C Tuning- CGCFAD

D-----------------------
A-----------------------
F--------4---3----------
C--------4---3------7-7-
G--------2---1------5-5-
C-2-1-0---------0---5-5-

D-----------------------
A-----------------------
F--------4---3----------
C--------4---3------7-7-
G--------2---1------5-5-
C-2-1-0---------0---5-5-

D----------------------------------
A----------------------------------
F----------------------------------
C----------------------------------
G-2-2-2-2-2-2-2-2-2-2-2-2-2-2-2-2--
C-0-0-0-0-0-0-0-0-0-0-0-0-0-0-0-0--
[ Tab from: http://www.guitartabs.cc/tabs/s/shadows_fall/thoughts_without_words_tab_ver_2.html ]
D-----------------------------------------
A-----------------------------------------
F--------4---3----------------------------
C--------4---3------7-7-------------------
G--------2---1------5-5-------5-----5-6-5-
C-2-1-0---------0---5-5---0-0---0-0-------

D----------------------------------------------
A----------------------------------------------
F--------4---3----------------------------3(PH)
C--------4---3------7-7---6---5---3---5---3(PH)
G--------2---1------5-5---6---5---3---5--------
C-2-1-0---------0---5-5------------------------

D-----------------------------------------
A-----------------------------------------
F--------4---3----------------------------
C--------4---3------7-7-------------------
G--------2---1------5-5-------5-----5-6-5-
C-2-1-0---------0---5-5---0-0---0-0-------

D-----------------------------------------
A-----------------------------------------
F---------------3-------5---------------3-
C---------------3-------5---------------3-
G-------5-------5-------3-------0-------1-
C---0-0----0-0-----0-0-----0-0-----0-0----

D-----------
A-----------
F-----------
C-5---1---0-
G-5---1---0-
C-5---1---0-
Comments