Shadows Fall - Thoughts Without Words Chords & Tabs

 

Thoughts Without Words Chords & Tabs

Shadows Fall Chords & Tabs

Version: 1 Type: Tab 0 ratings
1 star 2 stars 3 stars 4 stars 5 stars
comments

Thoughts Without Words Tab

   
Song Title: Thoughts Without Words 
Artist: Shadows Fall 
Submitted by: Mike Downes 

Shadows fall tunes to droped C (C,G,G,F,A,D)

    INTRO
D|------------------|----------------------------------------|
A|------------------|----------------------------------------|
F|------------------|----------------------------------------|
C|--------------7-7-|--------------7-7-----------------------|
G|-2-3-0--9-8-7-5-5-|-2-3-0--9-8-7-5-5---2-2-2-2-2-2-2-2-2---|
C|-2-3-0--9-8-7-----|-2-3-0--9-8-7-------2-2-2-2-2-2-2-2-2---|
P.M. . .              . . .              . . . . . . . . .
[ Tab from: http://www.guitartabs.cc/tabs/s/shadows_fall/thoughts_without_words_tab.html ]
  VERSE
D|----------------------------------|-------------------------------|
A|----------------------------------|----------------------------AH-|
F|----------------------------------|---------------------H----P--3~|
C|--------------7-7-----------------|--------------7-7-5-6-5--3-5---|
G|-2-3-0--9-8-7-5-5-----5-----5-6-5-|-2-3-0--9-8-7-5-5--------------|
C|-2-3-0--9-8-7-----0-0---0-0-------|-2-3-0--9-8-7------------------|
P.M. . .            . .   . .         . . .       


D|----------------------------------|
A|----------------------------------|
F|----------------------------------|
C|-----7-----8-----5-----2-----3-3--|
G|-----5-----5-----3-----0-----1-1--|
C|-0-0---0-0---0-0---0-0---0-0------|
P.M. .   . .   . .   . .   . .

   CHORUS
D|----------------------------------------------|
A|----------------------------------------------|
F|----------------------------------------------|
C|----------7-7---5---8--5---7------------------|
G|-5--1--0--5-5-/-3-\-6--3-/-5------------------|
C|-5--1--0---------------------000-000-000-000--|
P.M.                           ... ... ... ...


D|------------------------------------------------|
A|---H--P----H--P---H-P---H-P---------------------|
F|-10-12-10-9-10-9-7-9-7-5-7-5--7-5---------------|
C|----------------------------------8-7-5---------|
G|----------------------------------------8-7-8---|
C|------------------------------------------------|

Shadows Fall kicks ass, if you have anything to say about this tab 
(questions, complaints, anthing) contact me at XGuitarMasterX@aol.com

Comments